Log in

One click and you are in

Login with Facebook Login with Google

Why sign up and log in

Guitar Tabs Explorer
Doe Maar bass tabs for Doris day

Bass tabs

--- Doris Day by Doe Maar ---
---  Tabbed by niels241  ---


Verse:

G|-------0-4-3--3--3--4-|-6-----9--------------|
D|---2-4----------------|---7-----9--9---------|
A|-2--------------------|-----7---------9--9---|
E|----------------------|----------------------|
3x first, then 2x second. Repeat 2x.

Chorus:

G|---444-444-4---------------------------------|
D|-2-----------2----7777777-7------------------|
A|----------------5-----------5----------------|
E|---------------------------------------------|

G|---444-444-4---------------------------------|
D|-2-----------2----777-777-7------6666666-6---|
A|----------------5-----------5--4-----------4-|
E|---------------------------------------------|

G|---------------------------------------------|
D|-----------------666-666-6-------------------|
A|---------4--4--4-----------4--5-5-5-5-6--6---|
E|-2-2-2-2-------------------------------------|

Repeat 2x. You can vary with the fast notes, as I did at the end of the first and second parts.


1x Verse

1x Chorus


Bridge:

G|---------------------------------------------|
D|-2--------4--------2-----------2--2----------|
A|----2--2-----4--4-----0--0--2----------------|
E|---------------------------------------------|

G|---------------------------------------------|
D|-2---------4---------2-----------2--2--------|
A|----2--2--2---4--4--4---0--0--2--------------|
E|---------------------------------------------|

G|---------------------------------------------|
D|-2--------4--------2------------2--2---------|
A|----2--2-----4--4-----0--0--02---------------|
E|---------------------------------------------|

G|---------------------------------------------|
D|-2---------4--------2-----------2--2---------|
A|----2--2--2---4--4-----0--0--2---------------|
E|---------------------------------------------|


1x Chorus

Almost there ...

Sign in to get your own page with links to favourite songs and more. You are just one click away...

Login with Facebook Login with Google