Log in

One click and you are in

Login with Facebook Login with Google

Why sign up and log in

Guitar Tabs Explorer
Maanam bass tabs for Cykady na cykladach

Bass tabs

Tuning: Standard (E A D G)

Difficulty: Novice


Verse 1/Pre-Chorus:
(00:11)
G|-----------------|-----------------|----------------|----------------|
D|-----7---7-7-9-11|-----7---7-7-9-11|-----6---6-6-7-9|-----6---6-6-7-9| --|
A|-9-9---9---------|-9-9---9---------|-7-7---7--------|-7-7---7--------|  |
E|-----------------|-----------------|----------------|----------------|  |
                                      | (x2)
G|----------------|----------------|-----------------|-11-------|     |
D|----------------|----------------|-----7---7-7-9-11|-11-------|     |
A|-----5---5-5-7-9|-----5---5-5-7-8|-9-9---9---------|----------| ---------|
E|-7-7---7--------|-7-7---7--------|-----------------|----------|
Chorus:
G|--------------|--------------|----------------|------------------| (x3)
D|--------------|-0--4-7--0-4-7|------6-9----6-9|------------------|
A|-0--4-7--0-4-7|--------------|-5/7-------7----|-7-7--------------|
E|--------------|--------------|----------------|-----10-10-9-9-7-7|

G|--------------|--------------|--------11-------11-|---6-------------------|
D|--------------|-0----7--0---7|-/9--12-----9-12----|-9---7-9---------------|
A|-0--4-7--0-4-7|----9------9--|--------------------|---------7-7-7-7-------|
E|--------------|--------------|--------------------|-----------------------|


Verse 2/Pre-Chorus:
G|-----------------|-----------------|----------------|----------------|
D|-----7---7-7-9-11|-----7---7-7-9-11|-----6---6-6-7-9|-----6---6-6-7-9| --|
A|-9-9---9---------|-9-9---9---------|-7-7---7--------|-7-7---7--------|  |
E|-----------------|-----------------|----------------|----------------|  |
                                      | (x2)
G|----------------|----------------|-----------------|-11-------|     |
D|----------------|----------------|-----7---7-7-9-11|-11-------|     |
A|-----5---5-5-7-9|-----5---5-5-7-8|-9-9---9---------|----------| ---------|
E|-7-7---7--------|-7-7---7--------|-----------------|----------|

Chorus:
G|--------------|--------------|----------------|------------------| (x3)
D|--------------|-0--4-7--0-4-7|------6-9----6-9|------------------|
A|-0--4-7--0-4-7|--------------|-5/7-------7----|-7-7--------------|
E|--------------|--------------|----------------|-----10-10-9-9-7-7|

G|--------------|--------------|--------11-------11-|---6-------------------|
D|--------------|-0----7--0---7|-/9--12-----9-12----|-9---7-9---------------|
A|-0--4-7--0-4-7|----9------9--|--------------------|---------7-7-7-7-------|
E|--------------|--------------|--------------------|-----------------------|

Interlude:
G|-----------------|-----------------|----------------|----------------|
D|-----7---7-7-9-11|-----7---7-7-9-11|-----6---6-6-7-9|-----6---6-6-7-9|
A|-9-9---9---------|-9-9---9---------|-7-7---7--------|-7-7---7--------|
E|-----------------|-----------------|----------------|----------------|

G|----------------|----------------|-----------------|-11-------|
D|----------------|----------------|-----7---7-7-9-11|-11-------|
A|-----5---5-5-7-9|-----5---5-5-7-8|-9-9---9---------|----------|
E|-7-7---7--------|-7-7---7--------|-----------------|----------|


Chorus:
G|--------------|--------------|----------------|------------------| (x3)
D|--------------|-0--4-7--0-4-7|------6-9----6-9|------------------|
A|-0--4-7--0-4-7|--------------|-5/7-------7----|-7-7--------------|
E|--------------|--------------|----------------|-----10-10-9-9-7-7|

G|--------------|--------------|--------11-------11-|---6-------------------|
D|--------------|-0----7--0---7|-/9--12-----9-12----|-9---7-9---------------|
A|-0--4-7--0-4-7|----9------9--|--------------------|---------7-7-7-7-------|
E|--------------|--------------|--------------------|-----------------------|


Solo:
G|-----------------|-----------------|----------------|----------------|
D|-----7---7-7-9-11|-----7---7-7-9-11|-----6---6-6-7-9|-----6---6-6-7-9| --|
A|-9-9---9---------|-9-9---9---------|-7-7---7--------|-7-7---7--------|  |
E|-----------------|-----------------|----------------|----------------|  |
                                      | (x2)
G|----------------|----------------|-----------------|-11-------|     |
D|----------------|----------------|-----7---7-7-9-11|-11-------|     |
A|-----5---5-5-7-9|-----5---5-5-7-8|-9-9---9---------|----------| ---------|
E|-7-7---7--------|-7-7---7--------|-----------------|----------|


Chorus/Outro:
G|--------------|--------------|----------------|------------------| (x3)
D|--------------|-0--4-7--0-4-7|------6-9----6-9|------------------|
A|-0--4-7--0-4-7|--------------|-5/7-------7----|-7-7--------------|
E|--------------|--------------|----------------|-----10-10-9-9-7-7|

G|--------------|--------------|--------11-------11-|---6------------|
D|--------------|-0----7--0---7|-/9--12-----9-12----|-9---7-9--------|
A|-0--4-7--0-4-7|----9------9--|--------------------|---------7-7-7-7|
E|--------------|--------------|--------------------|----------------|


************************************

| / Slide Up

************************************
ⓘ Bass guitar tab for 'Cykady Na Cykladach' by Maanam, a new wave band formed in 1976 from Poland

Almost there ...

Sign in to get your own page with links to favourite songs and more. You are just one click away...

Login with Facebook Login with Google