You Appearing Intro by M83

You Appearing Intro tab by M83

Guitar tabs

-------------------------------------------------------------------------------
               YOU APPEARING - M83
-------------------------------------------------------------------------------
Tabbed by: markiiitu
E-mail: marcolucio27@gmail.com

Tuning: Dropped B

e|--6--5--|-----10--|-------13----|--5-----|
B|--------|--6------|--6--6----6--|-----6--|
G|--------|---------|-------------|--------|
D|--------|-----0---|-------------|--0-----|
A|--------|---------|-------------|--------|
E|--5--3--|--8--0---|--8--5-------|--0--8--|

************************************

| /  slide up
| \  slide down
| h  hammer-on
| p  pull-off
| ~  vibrato
| +  harmonic
| x  Mute note
| b  Bend
| pb Pre-bend
| br Bend release
| pbr Pre-bend release
| brb Bend release bend

Other versions of You Appearing Intro

Alternative guitar chords and tabs for You Appearing Intro by M83

Find guitar tabs and chords

A B C D E F G H I J K L M N O P Q R S T U V W X Y Z #