Search tabs and chords

Search for song, artist or band

Log in

One click and you are in

Login with Facebook Login with Google

Why sign up and log in

Guitar Tabs Explorer
M83 guitar tabs for Midnight city

Intro with lyrics

[Intro]

Lead (sharp staccato with moderate gain, add modulation and reverb for a synthy tone)

e|--14-------14--14-------14-14--14----14-------14--14-------14-14-14-14-----|
B|-----15-12--------15-12-----------------15-12--------15-12-----------------|
G|---------------------------------------------------------------------------|
D|---------------------------------------------------------------------------|
A|---------------------------------------------------------------------------|
D|---------------------------------------------------------------------------|
Rhythm (thick distortion with reverb, both humbuckers on, and let each chord ring out)

e|---------------------------------------------------------------------------|
B|---------------------------------------------------------------------------|
G|---------------------------------------------------------------------------|
D|--5-9-7-2-0----------------------------------------------------------------|
A|--5-9-7-2-0----------------------------------------------------------------|
D|--5-9-7-2-0----------------------------------------------------------------|


[Verse]

(mild gain, palm mute all, listen to the song for the rhythm)

e|---------------------------------------------------------------------------|
B|---------------------------------------------------------------------------|
G|---------------------------------------------------------------------------|
D|--5-9-7-2-0----------------------------------------------------------------|
A|--5-9-7-2-0----------------------------------------------------------------|
D|--5-9-7-2-0----------------------------------------------------------------|
PM  . . . . .


[Chorus]

Lead (sharp staccato with moderate gain, add modulation and reverb for a synthy tone)

e|--14-------14--14-------14-14--14----14-------14--14-------14-14-14-14-----|
B|-----15-12--------15-12-----------------15-12--------15-12-----------------|
G|---------------------------------------------------------------------------|
D|---------------------------------------------------------------------------|
A|---------------------------------------------------------------------------|
D|---------------------------------------------------------------------------|

Rhythm (thick distortion with reverb, both humbuckers on, and let each chord ring out)

e|---------------------------------------------------------------------------|
B|---------------------------------------------------------------------------|
G|---------------------------------------------------------------------------|
D|--5-9-7-2-0----------------------------------------------------------------|
A|--5-9-7-2-0----------------------------------------------------------------|
D|--5-9-7-2-0----------------------------------------------------------------|


[Verse]

(mild gain, palm mute all, listen to the song for the rhythm)

e|---------------------------------------------------------------------------|
B|---------------------------------------------------------------------------|
G|---------------------------------------------------------------------------|
D|--5-9-7-2-0----------------------------------------------------------------|
A|--5-9-7-2-0----------------------------------------------------------------|
D|--5-9-7-2-0----------------------------------------------------------------|
PM  . . . . .


[Bridge]

(no guitar)


[Chorus]

Lead (sharp staccato with moderate gain, add modulation and reverb for a synthy tone)

e|--14-------14--14-------14-14--14----14-------14--14-------14-14-14-14-----|
B|-----15-12--------15-12-----------------15-12--------15-12-----------------|
G|---------------------------------------------------------------------------|
D|---------------------------------------------------------------------------|
A|---------------------------------------------------------------------------|
D|---------------------------------------------------------------------------|


Rhythm (thick distortion with reverb, both humbuckers on, and let each chord ring out)

e|---------------------------------------------------------------------------|
B|---------------------------------------------------------------------------|
G|---------------------------------------------------------------------------|
D|--5-9-7-2-0----------------------------------------------------------------|
A|--5-9-7-2-0----------------------------------------------------------------|

Other versions of Midnight City

Midnight cityChords

Almost there ...

Sign in to get your own page with links to favourite songs and more. You are just one click away...

Login with Facebook Login with Google