Log in

One click and you are in

Login with Facebook Login with Google

Why sign up and log in

Guitar Tabs Explorer
M83 guitar tabs for Go

Solo tabs

Verse/Chorus:

e|---------------------------------------------------------------------------|
B|---------------------------------------------------------------------------|
G|-------------------------------------------------10-10-10-10-12-12-12-12---|
D|----------------12-12-12-10-12-10------------------------------------------|
A|-13-13-13-13-13-------------------13-13-13-13-13---------------------------|
E|---------------------------------------------------------------------------|(x6)


Outro:

e|---------------------------------------------------------------------------|
B|-3-3---------3---3-3-------3-6-3-------------------------------------------|
G|-----5---5-5---------5-5-5-------5-3---------------------------------------|
D|-------3-------3-----------------------------------------------------------|
A|---------------------------------------------------------------------------|

Other versions of Go

Go feat mai lanChords

Almost there ...

Sign in to get your own page with links to favourite songs and more. You are just one click away...

Login with Facebook Login with Google