Log in

One click and you are in

Login with Facebook Login with Google

Why sign up and log in

Guitar Tabs Explorer
M83 bass tabs for Claudia lewis

Bass tabs with lyrics

Intro + Verse 1:

No bass


Chorus 1 - 0:56:
  |    |    |    |     |    |    |    |
G|---------------------------------|---------------------------------| (for the choruses, i use my
D|---------------------------------|---------------------------------| index's nail as a plectrum)
A|---------------------------------|---------------------------------|
E|-----1-1-----1-1-----1-1-----1-1-|-----1-1-----1-1-----1-1-----1-1-|


  |    |    |    |     |    |    |    |
G|---------------------------------|---------------------------------|
D|---------------------------------|---------------------------------|
A|---------------------------------|---------------------------------| x2 (whole chorus)
E|-----3-3-----3-3-----3-3-----3-3-|-----3-3-----3-3-----3-3-----3-3-|



Verse 2 - 1:14:
  |    |    |    |     |    |    |    |
G|---------------------------------|---------------------------------|
D|-----------------------2-------2h|-3p2---------------------------3/|
A|-----------------2h3---------x---|---------------------------------| (or 3, instead of x)
E|-----1---------------------------|-----1-----------x-------x---x---|
    T      T   P   T P    T      T    T  T P


  |    |    |    |     |    |    |    |
G|---------------------------------|---------------------------------|
D|/5---------------------3-------3h|-5p3-------------------5---5-----| (or 5, instead of x)
A|-----------------3h5---------x---|---------------------------------|
E|-----3---------------------------|-----3-----------3---X--(X)------| (or 3, instead of X)
    T      T   P   T P    T      T  T P T P

  |    |    |    |     |    |    |    |
G|---------------------------------|---------------------------------|
D|-----------------------2-------2h|-3p2---------------------------3/|
A|-----------------2h3---------x---|---------------------------------| (or 3, instead of x)
E|-----1---------------------------|-----1-----------x-------x---x---|
    T      T   P   T P    T      T    T  T P


  |    |    |    |     |    |    |    |
G|---------------------------------|---------------------------------|
D|/5---------------------3-------3h|-5p3-------------------10--10----| (or 5, instead of x)
A|-----------------3h5---------x---|---------------------------------|
E|-----3---------------------------|-----3-----------3---X-----------| (or 3, instead of X)
    T      T   P   T P    T      T  T P  P


  |    |    |    |     |    |    |    |
G|---------------------------------|---------------------------------|
D|-----------------------2-------2h|-3p2---------------------------3/|
A|-----------------2h3---------x---|---------------------------------| (or 3, instead of x)
E|-----1---------------------------|-----1-----------x-------x---x---|
    T      T   P   T P    T      T    T  T P


  |    |    |    |     |    |    |    |
G|---------------------------------|---------------------------------|
D|/5---------------------3-------3h|-5p3-------------------5---5-----| (or 5, instead of x)
A|-----------------3h5---------x---|---------------------------------|
E|-----3---------------------------|-----3-----------3---X--(X)------| (or 3, instead of X)
    T      T   P   T P    T      T  T P T P


  |    |    |    |     |    |    |    |
G|---------------------------------|---------------------------------|
D|-----------------------2-------2h|-3p2---------------------------3/|
A|-----------------2h3---------x---|---------------------------------| (or 3, instead of x)
E|-----1---------------------------|-----1-----------x-------x---x---|
    T      T   P   T P    T      T    T  T P


  |    |    |    |     |    |    |    |
G|---------------------------------|---------------------------5p4p0-|
D|/5---------------------3-------3h|-5p3-----------------3h5p3-------| (or 5, instead of x)
A|-----------------3h5---------x---|---------------------------------|
E|-----3---------------------------|-----3---------------------------|
    T      T   P   T P    T        T   P




Chorus 2 - 1:50:
  |    |    |    |     |    |    |    |
G|---------------------------------|---------------------------------|
D|---------------------------------|---------------------------------|
A|---------------------------------|---------------------------------|
E|-----1-1-----1-1-----1-1-----1-1-|-----1-1-----1-1-----1-1-----1-1-|


  |    |    |    |     |    |    |    |
G|---------------------------------|---------------------------------|
D|---------------------------------|---------------------------------|
A|---------------------------------|---------------------------------| x4 (whole chorus)
E|-----3-3-----3-3-----3-3-----3-3-|-----3-3-----3-3-----3-3-----3-3-|




Verse 3 - 2:25:
  |    |    |    |     |    |    |    |
G|---------------------------------|---------------------------------|
D|---------------------------------|---------------------------------|
A|-5-------------------------------|---------------------------------| x4
E|-----------------3---------------|-3-------------------------------|

you can improvise on rythm with those 3 notes as guideline


  |    |    |    |     |    |    |    |
G|---------------------------------|---------------------------------|
D|---------------------------------|---------------------------------|
A|---------------------------------|---------------------------------|
E|-1-------------------------------|---------------------------------|


  |    |    |    |     |    |    |    |
G|---------------------------------|---------------------------------|
D|---------------------------------|---------------------------------| (silence)
A|---------------------------------|---------------------------------| x6
E|---------------------------------|---------------------------------|


  |    |    |    |     |    |    |    |
G|---------------------------------|---------------------------5p4p0-|
D|---------------------------------|---------------------3h5p3-------|
A|---------------------------------|---------2h3p0-3h5p0-------------| (not sure about the 0 on A
E|---------------------------------|---------------------------------| but it sounds adequate)
                       T   T   T   P



Chorus 3 - 3:19:
  |    |    |    |     |    |    |    |      |
G|---------------------------------|---------------------------------|  |
D|-3-------------------------------|---------------------------------|  |
A|---------------------------------|---------------------------------|  |
E|---------------------------------|-----1-1-----1-1-----1-1-----1-1-|  |
  let ring                                |
                                     |
  |    |    |    |     |    |    |    |      |
G|---------------------------------|---------------------------------|  |
D|---------------------------------|---------------------------------|  |
A|---------------------------------|---------------------------------|  |
E|-----3-3-----3-3-----3-3-----3-3-|-----3-3-----3-3-----3-3-----3-3-|  | fading in slowly
                                     |
                                     |
  |    |    |    |     |    |    |    |      |
G|---------------------------------|---------------------------------|  |
D|---------------------------------|---------------------------------|  |
A|---------------------------------|---------------------------------|  |
E|-----1-1-----1-1-----1-1-----1-1-|-----1-1-----1-1-----1-1-----1-1-|  |
                                     |
                                     |
  |    |    |    |     |    |    |    |      |
G|---------------------------------|---------------------------------|  |
D|---------------------------------|---------------------------------|  |
A|---------------------------------|---------------------------------|  |
E|-----3-3-----3-3-----3-3-----3-3-|-----3-3-----3-3-----3-3-----3-3-|  V


  |    |    |    |     |    |    |    |     _
G|---------------------------------|---------------------------------|  |
D|---------------------------------|---------------------------------|  |
A|---------------------------------|---------------------------------|  |
E|-----1-1-----1-1-----1-1-----1-1-|-----1-1-----1-1-----1-1-----1-1-|  |
                                     |
                                     |
  |    |    |    |     |    |    |    |      |
G|---------------------------------|---------------------------------|  |
D|---------------------------------|---------------------------------|  |
A|---------------------------------|---------------------------------|  | x4 (whole chorus)
E|-----3-3-----3-3-----3-3-----3-3-|-----3-3-----3-3-----3-3-----3-3-| _|


  |    |    |    |     |    |    |    |      |
G|---------------------------------|---------------------------------|  |
D|---------------------------------|---------------------------------|  |
A|---------------------------------|---------------------------------|  |
E|-----1-1-----1-1-----1-1-----1-1-|-----1-1-----1-1-----1-1-----1-1-|  |
                                     |
                                     |
  |    |    |    |     |    |    |    |      |
G|---------------------------------|---------------------------------|  |
D|---------------------------------|---------------------------------|  |
A|---------------------------------|---------------------------------|  |
E|-----3-3-----3-3-----3-3-----3-3-|-----3-3-----3-3-----3-3-----3-3-|  | fading out slowly
                                     |
                                     |
  |    |    |    |     |    |    |    |      |
G|---------------------------------|---------------------------------|  |
D|---------------------------------|---------------------------------|  |
A|---------------------------------|---------------------------------|  |
E|-----1-1-----1-1-----1-1-----1-1-|-----1-1-----1-1-----1-1-----1-1-|  |
                                     |
                                     |
  |    |    |    |     |    |    |    |      |
G|---------------------------------|---------------------------------|  |
D|---------------------------------|---------------------------------|  |
A|---------------------------------|---------------------------------|  |
E|-----3-3-----3-3-----3-3-----3-3-|-----3-3-----3-3-----3-3-----3-3-|  V



☠☠☠☠☠☠☠☠☠☠☠☠☠☠☠☠☠☠☠☠☠☠☠☠☠☠☠☠☠☠☠☠☠☠*
| /  Slide up
| \  Slide down
| h  Hammer-on
| p  Pull-off
| x  Dead note

| T  Thumb
| P  Pull/Pluck
☠☠☠☠☠☠☠☠☠☠☠☠☠☠☠☠☠☠☠☠☠☠☠☠☠☠☠☠☠☠☠☠☠☠*

Almost there ...

Sign in to get your own page with links to favourite songs and more. You are just one click away...

Login with Facebook Login with Google