Log in

One click and you are in

Login with Facebook Login with Google

Why sign up and log in

Guitar Tabs Explorer
M. Ward guitar tabs for Shangri-la

Guitar tabs

-------------------------------------------------------------------------------
			    M.Ward - Shangri-la
-------------------------------------------------------------------------------


Tabbed By : Adam Kopcinski
e-mail: solarflux@hotmail.com
Tuning: standard
Key of A chord diagramC majorC


Intro:
E|-----------------3--3---------------------------------------------|
B|--------------5--------6p5-5--------5-----------------------------|
G|--------0--5-----------------7-5h7-----5--0--5--0h2--2p0----------|
D|----------------------------------------------------------5-3-0h2-|
A|---0-2------------------------------------------------------------|
E|-3----------------------------------------------------------------|


A chord diagramC7C7
Up on the Sun this time tomorrow......this time no sorrow

Amin
First stop Jackson, next stop Shangri-La

A chord diagramG MajorG
And I cannot wait to see the expression....sweet lord

A chord diagramC7C7
Back on the Trail..........this time no sorrow

Amin
First stop Jackson, nedt stop Shangri-LA

A chord diagramG MajorG
And I cannot wait to see the expression....sweet lord

A chord diagramG MajorG
No I can not wait to hear ya call my name


x2
E|------------8-----------------------------------------------------|
B|---------5----8/10--8h10--8---------8-----------------------------|
G|---0--5----------------------9---------9-----9\-2----2p0----------|
D|------------------------------10h12-------10--------------5-3-0h2-|
A|------------------------------------------------------------------|
E|------------------------------------------------------------------|


A chord diagramC7C7
And forget me not.......This time no sorrow

Amin
First stop Jackson, next stop Shangri-La

A chord diagramG MajorG
And I cannot wait to see the expression....sweet lord

A chord diagramG MajorG
No I can not wait to hear ya call my name



| /  slide up
| \  slide down
| h  hammer-on
| p  pull-off
| | () Ghost note
| b  bend

Almost there ...

Sign in to get your own page with links to favourite songs and more. You are just one click away...

Login with Facebook Login with Google