Log in

One click and you are in

Login with Facebook Login with Google

Why sign up and log in

Guitar Tabs Explorer
M. Ward guitar tabs for Duet for guitars 3

Guitar tabs

M.Ward
Duet For Guitars #3
Tabbed by Adam Kopcinski 3/5/2007

This is what the lead guitar is playing.

*if you're only one person and want to try and make it sound more like
the recording, I suggest dropping the g string down to an f# so you
you can strum that string open in-between picking - if you do that,
just move all the notes on the g string up a fret

Key:
p=pull off
h=hammer on
/=slide up
=slide down
b=bend
(0:23)
e|--2-3-5--7p5--5h7/10-7-5-55-------------------------|
B|--3-5-7-----------------7--7-75h7-------------------|
G|----------------------------7-----------------------|
D|----------------------------------------------------|
A|----------------------------------------------------|
E|----------------------------------------------------|


e|--2-3-5--7p5--5h7/10-7-5------5-------5-------------|
B|--3-5-7------------------5h6h7--7-5-7---7-----------|
G|----------------------------------------------------|
D|----------------------------------------------------|
A|----------------------------------------------------|
E|----------------------------------------------------|

e|----------------------------o-------0---------------|
B|--3---3h53h5b----5-3-o--3-----3-3-----3-------------|
G|--------------------------2-------2-----------------|
D|------------------------o-------o-------------------|
A|----------------------------------------------------|
E|----------------------------------------------------|


e|------------------------------2---------(2/)--------|
B|--3---3h53h5b----5-3-o--3---3---3---3h5-------------|
G|--------------------------2-------2-----------------|
D|------------------------o---------------------------|
A|----------------------------------------------------|
E|----------------------------------------------------|

(0:45)

e|5--5h7/-10--10p7/---5-------5---------555-------2--2|
B|----------------------75-57-7--3-353--5557/87-3--3-3|
G|------------------------7----------------------2---2|
D|----------------------------------------------0----0|
A|----------------------------------------------------|
E|----------------------------------------------------|

(0:54)

e|--2-3-5--7p5--5h7/10-7-5------5---7----105---------|
B|--3-5-7--------------------7------------------------|
G|----------------------------------------------------|
D|----------------------------------------------------|
A|----------------------------------------------------|
E|----------------------------------------------------|

e|--2-3-5--7p5--5h7/10-7-5------5-------5-------------|
B|--3-5-7------------------5h6h7--7-5-7---7-----------|
G|----------------------------------------------------|
D|----------------------------------------------------|
A|----------------------------------------------------|
E|----------------------------------------------------|

e|----------------------------o-------0---------------|
B|--3---3h53h5b----5-3-o--3-----3-3-----3-------------|
G|--------------------------2-------2-----------------|
D|------------------------o-------o-------------------|
A|----------------------------------------------------|
E|----------------------------------------------------|

e|------------------------------2---------2/----------|
B|--3---3h53h5b----5-3-o--3---3---3---3h55------------|
G|--------------------------2-------2-----------------|
D|------------------------o---------------------------|
A|----------------------------------------------------|
E|----------------------------------------------------|

(1:15)
e|5--7p57/-10-10p7---5-------5-----------------------|
B|----------------------75-57--7----------------------|
G|------------------------7---------------------------|
D|----------------------------------------------------|
A|----------------------------------------------------|
E|----------------------------------------------------|

e|---------------------------5------------------------|
B|--3--5p35---7-7h5---3--5-3---3-5-3------------------|
G|---------------------------4-------4----------------|
D|----------------------------------------------------|
A|----------------------------------------------------|
E|----------------------------------------------------|

e|5--7p57/-10-10p7---5-------5---------555-------2--2|
B|----------------------75-57-7--3-353--5557/87-3--3-3|
G|------------------------7----------------------2---2|
D|----------------------------------------------0----0|
A|----------------------------------------------------|
E|----------------------------------------------------|

Almost there ...

Sign in to get your own page with links to favourite songs and more. You are just one click away...

Login with Facebook Login with Google