Log in

One click and you are in

Login with Facebook Login with Google

Why sign up and log in

Guitar Tabs Explorer
The M Machine guitar tabs for Faces

Guitar tabs

The M Machine - Faces

Drop A chord diagramD MajorD

Tabbed by Jack Andrews.

Intro:

(Ambience 0:00 - 0:16)


Intro:

(0:17 - 0:28)

(Let chords ring out for a short while then stop before hitting next chord.)
(Almost a noise gate effect)

D|------------------------------|
B|------------------------------|
G|------------------------------|
D|4---4---5---5---7---7---9---5-|  X 2
A|4---4---5---5---7---7---9---5-|
D|4---4---5---5---7---7---9---5-|


Verse:

0:29 - 0:50

(Palm Muted)

D|------------------------------|
B|------------------------------|
G|------------------------------|
D|4---4---5---5---7---7---9---5-|  X 4
A|4---4---5---5---7---7---9---5-|
D|4---4---5---5---7---7---9---5-|


Bridge/Synth Solo:

(0:51 - 1:03)

(Strike strings individually but open to get that messy analog synth sound.)

D|---------------------------------------------------------------------------|
B|---------------------------------------------------------------------------|
G|---------------------------------------------------------------------------|
D|------6-------6-------7---------7--------9--------9--------11--------7-----|  X 2
A|---4-------4-------5---------5--------7--------7--------9---------5--------|
D|4-------4-------5--------5---------7--------7--------9--------5------------|


Verse:

(1:04 - 1:24)

(Palm Muted)

D|------------------------------|
B|------------------------------|
G|------------------------------|
D|4---4---5---5---7---7---9---5-|  X 4
A|4---4---5---5---7---7---9---5-|
D|4---4---5---5---7---7---9---5-|


Bridge/Synth Solo:

(1:25 - 1:35)

(Palm mute each note to create a plucky synth sound with little resonance)

D|---------------------------------------------------------------------------|
B|---------------------------------------------------------------------------|
G|---------------------------------------------------------------------------|
D|------6-------6-------7---------7--------9--------9--------11--------7-----|  X 2
A|---4-------4-------5---------5--------7--------7--------9---------5--------|
D|4-------4-------5--------5---------7--------7--------9--------5------------|


(1:36 - 1:58)

(Strike strings individually but open like earlier)

D|---------------------------------------------------------------------------|
B|---------------------------------------------------------------------------|
G|---------------------------------------------------------------------------|
D|------6-------6-------7---------7--------9--------9--------11--------7-----|  X 4
A|---4-------4-------5---------5--------7--------7--------9---------5--------|
D|4-------4-------5--------5---------7--------7--------9--------5------------|


Ambience Break:

(1:59 - 2:20)

(Let chords ring under ambient keys)

D|---------------------------|
B|---------------------------|
G|---------------------------|
D|4------5------7------9---5-|  X 4
A|4------5------7------9---5-|
D|4------5------7------9---5-|

(2:21 - 2:41)

(Palm Muted)

D|------------------------------|
B|------------------------------|
G|------------------------------|
D|4---4---5---5---7---7---9---5-|  X 4
A|4---4---5---5---7---7---9---5-|
D|4---4---5---5---7---7---9---5-|

(2:42 - 2:49)

(Silence)

Almost there ...

Sign in to get your own page with links to favourite songs and more. You are just one click away...

Login with Facebook Login with Google