Log in

One click and you are in

Login with Facebook Login with Google

Why sign up and log in

Guitar Tabs Explorer
M C Brown Shoes guitar tabs for Prompt reliable

Guitar tabs

"Prompt Reliable"
by M.C. Brown Shoes

tabs by Art Rush
(artrush@gmail.com)
(original work)

acoustic finger-picking with thumb
snapping on low e string.

the song is structured around
three key figures:

figure 1:
E-----------------------------------------------|
B-----6----------4----------3---3---------------|
G-----6----------4----------3---3-----3---------|
D---------5----------3----------------1----1----|
A--6---------6s4--------4s3--------3----------3s|
E-------X----------X----------X----------X------| rpt.


figure 2:
E----------------------------------------------|
B----8----------4-----------6---------6---6----|
G----8----------4-----------6---------6---6----|
D--------6-----------2-----------4-------------|
A--8--------8s4---------4s6---------6--------6s|
E------X----------X-----------X---------X------| rpt.

figure 3:
E-----------------------------|
B--3---2----------2--1---1--0-|
G--3---2----------2--1---1--0-|
D--1---1-------1--1--0---0--0-|
A--3---2-----2----2--1---1--0-|
E---------------------------0-|

Almost there ...

Sign in to get your own page with links to favourite songs and more. You are just one click away...

Login with Facebook Login with Google