Log in

One click and you are in

Login with Facebook Login with Google

Why sign up and log in

Guitar Tabs Explorer
Lynyrd Skynyrd bass tabs for Gimme back my bullets

Gimme Back My Bullets bass tab by Lynyrd Skynyrd

Lynyrd Skynyrd bass tabs for Gimme back my bullets

Bass tabs with lyrics

WORDS AND MUSIC: Gary Rossington and Ronnie Van Zant
Title: Gimme Back My Bullets
Album: Gimme Back My Bullets
RELEASE YEAR: 1976
DURATION: 3:29
GENRE: Rock, Classic Rock
LABEL: Geffen
TUNE DOWN 1/2 STEP: (Low To High) Eb-Ab-Db-Gb
TIME SIGNATURE: 4/4
🏷LegendS: h = hold
     r = rest
     \ = slide down
     / = slide up
INTRO: Moderately Slow, d = 84 N.C.
  r=1/8
G |----------------|-------------------------|-----------------------|-----------------------|
D |----------------|-------------------------|-----------------------|-----------------------|
A |----------------|-3-----------------------|-----------------------|-----------------------|
E |-------0h3--5-3-|---5-0--5-3-0--5-0--5-0h3|-5-0--5-3-0--5-0--5-0h3|-5-0--5-3-0--5-0--5-0h3|
  1.        2.            3.           4.


G |--------------|---------------|-----------------|-----------------|
D |--------------|---------------|-----------------|-----------------|
A |--------------|---------------|-----------------|-----------------|
E |-5-0--5-3-0--5|---------------|-----------------|-----------------|
  5.


VERSE:

          2nd. time, Bass: w/Fill 1
G |---------------|-----------------------|-----------------|-----------------|
D |---------------|-----------------------|-----------------|-----------------|
A |---------3----3|-5-5--3----------------|-----------------|-----------------|
E |-5--3-5-----5--|--------5-3--5-0--3-5-3|-----------------|-----------------|
  6.       7.

Fill 1
Bass
G |-----------------------|-----------------|-----------------|-----------------|
D |-----------------------|-----------------|-----------------|-----------------|
A |-5--3------------------|-----------------|-----------------|-----------------|
E |------5-3--5-5-0--3-5-3|-----------------|-----------------|-----------------|

        5h0
G |-----------------|-------------------|-----------------|-----------------|
D |-----------------|-------------------|-----------------|-----------------|
A |---------3--5-3-0|--------------3h0--|-----------------|-----------------|
E |-5--3-5----------|-3--0-3-0--5------3|-----------------|-----------------|
  8.        9.


                             5h0
G |-----------------|-----------------------|-----------------|-----------------------|
D |-----------------|-----------------------|-----------------|-----------------------|
A |---------3----3--|-5--3------------------|---------3--5-3-0|-----------------------|
E |-5--3-5-----5----|------5h3--5-5-0--3-5-3|-5--3-5----------|-3--0-3-0--5-0h3--5-3-0|
  10.        11.           12.        13.


CHORUS:
2nd. time, Bass: w/Fill 2
                        2h2
G |-------------------------|-------------------------|-----------------|-----------------|
D |-------------------------|-------------------------|-----------------|-----------------|
A |-3-----------------------|-5-0--5-5-0--3-3--2-3-2--|-----------------|-----------------|
E |---5-0--5-3-0--5-0--5-3h5|------------------------3|-----------------|-----------------|
  14.            15.

Fill 2
Bass
G |-----------------------|-----------------|-----------------|-----------------|
D |-----------------------|-----------------|-----------------|-----------------|
A |-----------------------|-----------------|-----------------|-----------------|
E |-5-0--5-3-0--5-0--5-3h5|-----------------|-----------------|-----------------|


                                               To Coda O
G |---------------------------|-----------------------|-----------------------|-----------------------|
D |---------------------------|-----------------------|-----------------------|------------------2-3--|
A |---------------3-----------|-5-0--5-5-0--3-0--3-3-0|-----------------------|-5-0--5-5-0--3-3------3|
E |-5-0--5-0-3--5---5-3--5-3h0|-----------------------|-3-3--0-3h0--5-0--3h5-3|-----------------------|
  16.             17.           18.           19.


      r=1/8                              7h3  Verse
G |-------------------------|-----------------------|-----------------------------|-----------------|
D |-5-----------------------|-----------------------|-------------7-7-5-5---------|-----------------|
A |---5---------------------|-----------------------|----------------------7\5-3-5|---------3--5-3--|
E |-----0-5\------0-3--5-3-0|-5-0--5-3-0--5-0--5-0-3|-5-0--5-3-0------------------|-5-0--5----------|
  20.            21.           22.              23.


G |-------------------------|-----------------|-------------------|-----------------|
D |-------------------------|-----------------|-------------------|-----------------|
A |-5-5--3------------------|---------3--5-3--|--------------3h0--|---------3----3--|
E |--------5h3--5-5-0--3-5-3|-5--3-5---------5|-3--0-3-0--5------3|-5--3-5-----5----|
  24.            25.        26.         27.


                    5h0
G |-----------------------|-----------------|-----------------------|-----------------|
D |-----------------------|-----------------|-----------------------|-----------------|
A |-5--3------------------|---------3--5-3-0|-----------------------|-----------------|
E |------5h3--5-5-0--3h5-3|-5--3-5----------|-3--0-3-0--5-0-3--5-3-0|-----------------|
  28.           29.        30.


Chorus                     2h2
G |-------------------------|-----------------------|---------------------------|-----------------------|
D |-------------------------|-----------------------|---------------------------|-----------------------|
A |-3-----------------------|-5-0--5-5h0--3--2-3-2--|---------------3-----------|-5-0--5-5-0--3-0--3-3-0|
E |---5-0--5-3-0--5-0--5-3h5|----------------------3|-5-0--5-0-3--5---5-3--5-3-0|-----------------------|
  31.            32.           33.             34.

                                         2
   0h3 0h3                        r=1/8    r=1/8 4 r=1/8
G |-------------------------|-----------------------|---------------------------|-----------------|
D |-------------------------|------------------2-3--|-5-------------------------|-----------------|
A |-------------------------|-5-0--5-5-0--3-3------3|---5-----------------------|-----------------|
E |-3-0--3-0-3--5-5-0--3-5-3|-----------------------|-----0-5\------0-3--5------|--------0-3--5-3-|
  35.            36.           37.             38.

  4                      0h5             9h14
  4                      3/5  7h7 7h7  r=1/8   9/14   14h14
G |-----------------------|------------------------|--------------------9-7-9---|-14-14---14-14-12-------------
D |-----------------------|------------------------|--------7---7---------------|-------------------14-13-12-10
A |-----------------------|------------------------|---7------------------------|------------------------------
E |-5-0--5-3-0--5-0--5-0-3|-5-0--5-3-0--5-0--5-0-3/|-5--------------------------|------------------------------
  39.           40.           41.             42.

      Guitar Solo
    10\5       2h2                         2h2
G --------|----------------------|-----------------------|---------------------------|
D --------|----------------------|-----------------------|---------------------------|
A --12-10\|5-0--5-5-0--3--2-3-2--|-----------------------|-5-5-0--5-5-0--3-3--2-3-2--|
E --------|---------------------3|-5-0--5-0h3--5-5--3h5-3|--------------------------3|
      43.          44.           45.


                        2h2                         2h2
G |---------------------------|-----------------------|---------------------------|-----------------------|
D |---------------------------|-----------------------|---------------------------|-----------------------|
A |---------------3-----------|-5-0--5-5-0--3--2-3-2--|---------------3-----------|-5-0--5-5-0--3--2-3-2--|
E |-5-0--5-0-3--5---5-3--5-3-0|----------------------3|-5-0--5-0-3--5---5-3--5-3-0|----------------------3|
  46.             47.           48.             49.


        r=1/8  7\
G |---------------------|-----------------|-----------------|-----------------|
D |---------------------|-----------------|-----------------|-----------------|
A |-------------------7\|-----------------|-----------------|-----------------|
E |-5--5-0-3--5---------|-----------------|-----------------|-----------------|
  50
                2         4
O Coda  5\ r=1/8 0h3  r=1/8 4 r=1/8 0h3    4
G |----------------------------|------------------|-----------------------|-----------------|
D |-5--------------------------|------------------|-----------------------|-----------------|
A |---5------------------------|------------------|-----------------------|-----------------|
E |-----0-5\-------0-3--5------|--------0-3--5-3-0|-5-0--5-3-0--5-0--5-0h3|-----------------|
  51.             52.        53.


            0h3     3h0        Begin Fade
G |-----------------------|-----------------------|-----------------------------|-----------------|
D |-----------------------|-----------------------|-------------7-7-5-5---------|-----------------|
A |-----------------------|-----------------------|----------------------3-3-5-5|-----------------|
E |-5-0--5-3-0--5-0--5-0h3|-5-0--5-3h0--5-0--5-3-0|-5-0--5-3-0------------------|-----------------|
  54.           55.           56.


Outro         0h3     0h3           0h3              Fade Out
G |-----------------------|-----------------------|-----------------------|-----------------------|
D |-----------------------|-----------------------|-----------------------|-----------------------|
A |-----------------------|-----------------------|-----------------------|-----------------------|
E |-5-0--5-3-0--5-0--5-0h3|-5-0--5-0h3--5-0--5-3-0|-5-0--5-0h3--5-0--5-3-0|-5-0--5-3-0--5-0--5-0h3|
  57.           58.           59.
ⓘ Bass guitar tab for 'Gimme Back My Bullets' by Lynyrd Skynyrd, a rock band formed in 1964 from Jacksonville, Florida, USA. Lynyrd Skynyrd is known for their passionate rock/pop music.

Almost there ...

Sign in to get your own page with links to favourite songs and more. You are just one click away...

Login with Facebook Login with Google