Log in

One click and you are in

Login with Facebook Login with Google

Why sign up and log in

Guitar Tabs Explorer
Lynyrd Skynyrd bass tabs for Freebird

Bass tabs

Freebird Bass Tabs



Intro:
	G------------------|--------------|--------------------|
	D----5------4------|--2-----------|----5---7-5-----7-5-|
	A------------------|--------------|------------3-------|
	E------------------|--------------|--------------------|

	|---------7----14-14-16-16-17-16-14---|
	|---------------0--0--0--0--0--0--0---|
	|-5---5-------------------------------|
	|-------------------------------------|
	Verses:
	|------------------------------|---------------------------|
	|---5-----------5-4----------4-|-------------------------5-|
	|-------5-----------------5----|--7--------7---7-----5-7---|
	|-----------3---------5--------|-----7---------------------|


	|---------------------------|------------7------7------|
	|-3---3-3---3-0-------------|-------7------7------7----|
	|---------------3---3-3-3/5-|--5--5----5------5-----5--|
	|---------------------------|--------------------------|


	Choruses:
	|---------------------------|----------14-14-16-16-17-19-19--|
	|-3---3-3---3-0-------------|------7----0--0--0--0--0--0--0--|
	|---------------3---3-3-3/5-|-5--5---------------------------|
	|---------------------------|--------------------------------|


	Solo Riff:
	|-------------------------|-----------------------------|
	|-------------------------|-----------------------------|
	|----------------------1--|------1-----1------0--1----5-|
	|--3--3-----3-----3-------|-----------------------------|


	|----------------------|----------------------|
	|----------------------|----------------------|
	|--3--3----3-3--3----3-|-3--3----3----3-------|
	|----------------------|----------------0-1-2-|


	Decending scale:
	|--5--5--3--3--2--2--0--0--|-----------------------|
	|--------------------------|--3--1--0--------------|
	|--------------------------|-----------3--1--0--3--|
	|--------------------------|-----------------------|

Thanks to David G

ⓘ Bass guitar tab for 'Freebird ' by Lynyrd Skynyrd, a rock band formed in 1964 from Jacksonville, Florida, USA. Lynyrd Skynyrd is known for their passionate rock/pop music.

Almost there ...

Sign in to get your own page with links to favourite songs and more. You are just one click away...

Login with Facebook Login with Google