Log in

One click and you are in

Login with Facebook Login with Google

Why sign up and log in

Guitar Tabs Explorer
Lynyrd Skynyrd tabs for Floyd

Guitar tabs

Lynyrd Skynyrd
Floyd

Clean

intro 0.23 - 0.36
E---------------------|
B---------------------|
G---------------------|
D---6-6-4-------------|
A---4-4-2-6-6-6-6-4---|
E---------4-4-4-4-2---|x4

Clean

verse 0.37 - 1.1
E--------------------------------|-----------------------------|
B--------------------------------|-----------------------------|
G-------------------------------.|-----------------------------|
D--4x-6x-7x-9--4x-6x-9-9-9-6-4--.|-9-9-9-8-6-4--9-9-9-8-4-2----|
A--2x-4x-5x-7--2x-4x-7-7-7-4-2---|-7-7-7-6-4-2--7-7-7-6-4-2----|
E--------------------------------|-----------------------------|

Distorted
E----------------------------------------------------------------|
B----------------------------------------------------------------|
G----------------------------------------------------------------|
D--8/7-8/7-8/7-6-4-4-2---8/7-8/7-8/7-6-4-4-2----4x-6x-9-9-9-6-4--|
A--6/5-6/5-6/5-4-2-2-0---6/5-6/5-6/5-4-2-2-0----2x-4x-7-7-7-4-2--|
E----------------------------------------------------------------|

Distorted
E---------------------|
B---------------------|
G---------------------|
D---6-6-4-------------|
A---4-4-2-6-6-6-6-4---|
E---------4-4-4-4-2---|x2 with

E-------------------------------|
B-------------------------------|
G---12b^13^14^15---10b10b------.|
D------------------------12----.|
A-------------------------------|
E-------------------------------|

Clean
E--------------------------------|-----------------------------|
B--------------------------------|-----------------------------|
G-------------------------------.|-----------------------------|
D--4x-6x-7x-9--4x-6x-9-9-9-6-4--.|-9-9-9-8-6-4--9-9-9-8-4-2----|
A--2x-4x-5x-7--2x-4x-7-7-7-4-2---|-7-7-7-6-4-2--7-7-7-6-4-2----|
E--------------------------------|-----------------------------|

Distorted
E----------------------------------------------------------------|
B----------------------------------------------------------------|
G----------------------------------------------------------------|
D--8/7-8/7-8/7-6-4-4-2---8/7-8/7-8/7-6-4-4-2----4x-6x-9-9-9-6-4--|
A--6/5-6/5-6/5-4-2-2-0---6/5-6/5-6/5-4-2-2-0----2x-4x-7-7-7-4-2--|
E----------------------------------------------------------------|

Solo
Distorted
E--------------|
B--------------|
G---12~10~12~--|
D--------------|
A--------------|
E--------------| repeat lots

Clean
E--------------------------------|-----------------------------|
B--------------------------------|-----------------------------|
G-------------------------------.|-----------------------------|
D--4x-6x-7x-9--4x-6x-9-9-9-6-4--.|-9-9-9-8-6-4--9-9-9-8-4-2----|
A--2x-4x-5x-7--2x-4x-7-7-7-4-2---|-7-7-7-6-4-2--7-7-7-6-4-2----|
E--------------------------------|-----------------------------|

Distorted
E----------------------------------------------------------------|
B----------------------------------------------------------------|
G----------------------------------------------------------------|
D--8/7-8/7-8/7-6-4-4-2---8/7-8/7-8/7-6-4-4-2----4x-6x-9-9-9-6-4--|
A--6/5-6/5-6/5-4-2-2-0---6/5-6/5-6/5-4-2-2-0----2x-4x-7-7-7-4-2--|
ⓘ Guitar tab for 'Floyd' by Lynyrd Skynyrd, a rock band formed in 1964 from Jacksonville, Florida, USA. Lynyrd Skynyrd is known for their passionate rock/pop music.

Other versions of Floyd

Floyd acousticTabs

Almost there ...

Sign in to get your own page with links to favourite songs and more. You are just one click away...

Login with Facebook Login with Google