Log in

One click and you are in

Login with Facebook Login with Google

Why sign up and log in

Guitar Tabs Explorer
Lynyrd Skynyrd tabs for Cottonmouth country

Guitar tabs

p=pull off
h=hammer on
~=bend up and down quickly
b^=bend up

you kinda have to listen to the song to get it
and it seems easier to pick it with your fingers
then to use an actual pick

e-----------------------------------------------------|
b-------------------------------------9/7/9-----------|
g-------------------------------------9/7/9-----------| 2x
d----0-2---5~---0-2p0------0-2---5----9/7/9-----------|
A-----------------------------------------------------|
E--0-----0----0----------0-----0---0------------------|
e-----------------------------------------------------|
b-----------------------------------------------------|
g---------------------------------5h2p0---------------|
d----0-2~p0---0-2~p0---0-2~p0------------5h2p0--------|
A-----------------------------------------------------|
E--0--------0--------0--------0-----------------------|


e-------------------------------------------------------|
b-------------------------------------------------------|
g--------------------------------9b^11-9--7---7---------|
d----0-2~p0---0-2~p0---0-2~p0--------------9------------|
A-------------------------------------------------------|
E--0--------0--------0--------0-------------------------|


e-----------------------------------------------------|
b--------------------------------9/7/9----------------|
g--------------------------------9/7/9----------------| rest of
d----0-2~p0---0-2~p0---0-2~p0----9/7/9----------------| the time
A-----------------------------------------------------|
E--0--------0--------0--------0-----------------------|

ⓘ Guitar tab for 'Cottonmouth Country' by Lynyrd Skynyrd, a rock band formed in 1964 from Jacksonville, Florida, USA. Lynyrd Skynyrd is known for their passionate rock/pop music.

Almost there ...

Sign in to get your own page with links to favourite songs and more. You are just one click away...

Login with Facebook Login with Google