Log in

One click and you are in

Login with Facebook Login with Google

Why sign up and log in

Guitar Tabs Explorer
Lynyrd Skynyrd bass tabs for Call me the breeze

Call Me The Breeze bass tab by Lynyrd Skynyrd

Lynyrd Skynyrd bass tabs for Call me the breeze

Bass tabs

INTRO:  2x
G||--------------------------------|--------------------------------||
D||--------------------------------|--------------------------------||
A||--------------------------------|--------------------------------||
E||r-------------------------------|--------------------------------||

G|--------------------------------|--------------------------------|
D|--------------------------------|--------------------------------|
A|--------------------------------|--------------------------------|
E|5---r---------------------------|5---r---------------------------|

G|--------------------------------|--------------------------------|
D|--------------------------------|--------------------------------|
A|--------------------------------|--------------------------------|
E|5---r---------------------------|r-------------------------------|
VERSE: (6x till half way through solo)  3x
G||--------------------------------|--------------------------------||
D||7-------------------------------|7-------------------------------||
A||----------------7---------------|----------------7-------9-------||
E||--------------------------------|--------------------------------||

G|--------------------------------|--------------------------------|
D|7-------------------------------|7-------5-------4---------------|
A|----------------7---------------|------------------------7-------|
E|--------------------------------|--------------------------------|

G|--------------------------------|--------------------------------|
D|--------------------------------|--------------------------------|
A|5-------------------------------|5-------------------------------|
E|----------------5---------------|----------------5-------7-------|

G|--------------------------------|--------------------------------|
D|--------------------------------|--------4-------5-------6-------|
A|5-------------------------------|5-------------------------------|
E|----------------5---------------|--------------------------------|

G|--------------------------------|--------------------------------|
D|7-------------------------------|7-------------------------------|
A|----------------7---------------|----------------7-------9-------|
E|--------------------------------|--------------------------------|

G|--------------------------------|--------------------------------|
D|7-------------------------------|7-------------------------------|
A|----------------7---------------|--------4-------5-------6-------|
E|--------------------------------|--------------------------------|

G|--------------------------------|--------------------------------|
D|--------------------------------|--------------------------------|
A|7-------------------------------|7-----------------------7-------|
E|----------------7---------------|----------------7---------------|

G|--------------------------------|--------------------------------|
D|--------------------------------|--------4-------5-------6-------|
A|5-------------------------------|5-------------------------------|
E|----------------5---------------|--------------------------------|

G|--------------------------------|--------------------------------|
D|7-------------------------------|7-------------------------------|
A|----------------7---------------|----------------7-------9-------|
E|--------------------------------|--------------------------------|

G|--------------------------------|--------------------------------|
D|7-------------------------------|7-----------------------6-------|
A|----------------7---------------|--------7-------9---------------|
E|--------------------------------|--------------------------------|

SOLO: (2nd half)  2x
G||---------------------------------|---------------------------------||
D||------------4-7----7-5---4-------|------------4-7----7-5---4-------||
A||--------4-7------------------7---|--------4-7------------------7---||
E||5-----5--------------------------|5-----5--------------------------||

G|--------------------------------|--------------------------------|
D|--------------------------------|--------------------------------|
A|5-------------------------------|5-------------------------------|
E|----------------5---------------|----------------5-------7-------|

G|--------------------------------|--------------------------------|
D|--------------------------------|--------4-------5-------6-------|
A|5-------------------------------|5-------------------------------|
E|----------------5---------------|--------------------------------|

G|---------------------------------|---------------------------------|
D|------------4-7----7-5---4-------|------------4-7----7-------------|
A|--------4-7------------------7---|--------4-7----------4---5---6---|
E|5-----5--------------------------|5-----5--------------------------|

G|--------------------------------|--------------------------------|
D|--------------------------------|--------------------------------|
A|7-------------------------------|7-----------------------7-------|
E|----------------7---------------|----------------7---------------|

G|--------------------------------|--------------------------------|
D|--------------------------------|--------4-------5-------6-------|
A|5-------------------------------|5-------------------------------|
E|----------------5---------------|--------------------------------|

G|--------------------------------|--------------------------------|
D|7-------------------------------|7-------------------------------|
A|----------------7---------------|----------------7-------9-------|
E|--------------------------------|--------------------------------|

G|--------------------------------|--------------------------------|
D|7-------------------------------|7-----------------------6-------|
A|----------------7---------------|--------7-------9---------------|
E|--------------------------------|--------------------------------|


VERSE:  3x
G||--------------------------------|--------------------------------||
D||7-------------------------------|7-------------------------------||
A||----------------7---------------|----------------7-------9-------||
E||--------------------------------|--------------------------------||

G|--------------------------------|--------------------------------|
D|7-------------------------------|7-------5-------4---------------|
A|----------------7---------------|------------------------7-------|
E|--------------------------------|--------------------------------|

G|--------------------------------|--------------------------------|
D|--------------------------------|--------------------------------|
A|5-------------------------------|5-------------------------------|
E|----------------5---------------|----------------5-------7-------|

G|--------------------------------|--------------------------------|
D|--------------------------------|--------4-------5-------6-------|
A|5-------------------------------|5-------------------------------|
E|----------------5---------------|--------------------------------|

G|--------------------------------|--------------------------------|
D|7-------------------------------|7-------------------------------|
A|----------------7---------------|----------------7-------9-------|
E|--------------------------------|--------------------------------|

G|--------------------------------|--------------------------------|
D|7-------------------------------|7-------------------------------|
A|----------------7---------------|--------4-------5-------6-------|
E|--------------------------------|--------------------------------|

G|--------------------------------|--------------------------------|
D|--------------------------------|--------------------------------|
A|7-------------------------------|7-----------------------7-------|
E|----------------7---------------|----------------7---------------|

G|--------------------------------|--------------------------------|
D|--------------------------------|--------4-------5-------6-------|
A|5-------------------------------|5-------------------------------|
E|----------------5---------------|--------------------------------|

G|--------------------------------|--------------------------------|
D|7-------------------------------|7-------------------------------|
A|----------------7---------------|----------------7-------9-------|
E|--------------------------------|--------------------------------|

G|--------------------------------|--------------------------------|
D|7-------------------------------|7-----------------------6-------|
A|----------------7---------------|--------7-------9---------------|
E|--------------------------------|--------------------------------|


Outro:  3x
G||--------------------------------|--------------------------------||
D||7-------------------------------|7-------------------------------||
A||----------------7---------------|----------------7-------9-------||
E||--------------------------------|--------------------------------||

G|--------------------------------|--------------------------------|
D|7-------------------------------|7-------5-------4---------------|
A|----------------7---------------|------------------------7-------|
E|--------------------------------|--------------------------------|

G|--------------------------------|--------------------------------|
D|--------------------------------|--------------------------------|
A|5-------------------------------|5-------------------------------|
E|----------------5---------------|----------------5-------7-------|

G|--------------------------------|--------------------------------|
D|--------------------------------|--------4-------5-------6-------|
A|5-------------------------------|5-------------------------------|
E|----------------5---------------|--------------------------------|

G|--------------------------------|--------------------------------|
D|7-------------------------------|7-------------------------------|
A|----------------7---------------|----------------7-------9-------|
E|--------------------------------|--------------------------------|

G|--------------------------------|--------------------------------|
D|7-------------------------------|7-------------------------------|
A|----------------7---------------|--------4-------5-------6-------|
E|--------------------------------|--------------------------------|

G|--------------------------------|--------------------------------|
D|--------------------------------|--------------------------------|
A|7-------------------------------|7-----------------------7-------|
E|----------------7---------------|----------------7---------------|

G|--------------------------------|--------------------------------|
D|--------------------------------|--------4-------5-------6-------|
A|5-------------------------------|5-------------------------------|
E|----------------5---------------|--------------------------------|

G|--------------------------------|--------------------------------|
D|--------------------------------|--------------------------------|
A|--------4---4---5---5---6---6---|7---r---------------------------|
E|5---5---------------------------|--------------------------------|

G|--------------------------------|--------------------------------|
D|--------------------------------|--------------------------------|
A|--------------------------------|--------------------------------|
E|------------------------6-------|{6}-------5---------------------|

G|--------------------------------|--------------------------------|
D|--------------------------------|--------------------------------|
A|--------------------------------|--------------------------------|
E|{5}-----------------------------|r-------------------------------|



Time signature: 4/4

***********************************
********************************

| r Rest (listen for duration)
| {}

note inside pointed parenthesis still ringing from previous measure
| || measure gets repeated (see number of times above measure, e.g. 4x)
ⓘ Bass guitar tab for 'Call Me The Breeze' by Lynyrd Skynyrd, a rock band formed in 1964 from Jacksonville, Florida, USA. Lynyrd Skynyrd is known for their passionate rock/pop music.

Almost there ...

Sign in to get your own page with links to favourite songs and more. You are just one click away...

Login with Facebook Login with Google