Log in

One click and you are in

Login with Facebook Login with Google

Why sign up and log in

Guitar Tabs Explorer
Lush bass tabs for Hypocrite

Bass tabs with lyrics

  • Difficulty: Beginner
Tuning: Standard (E A D G)

🎸 Intro:

G|-----------------------------------------------------------------|
D|-2-2-2-2---------------------------------------------------------|
A|---------2-2-2-2-3-3-3-3-----------------2-2-2-2-3-3-3-3-6-6-6-6-|
E|------------------------ 3-3-3-3-0-0-0-0-------------------------|

G|----------------------------------------------------------------------------|
D|----------------------------------------------------------------------------|
A|-------------3-3-3-3-3-3-3-------------3-3-3-3-3-3-3-------5-3--3-3-3-5-5-5-|
E|-0-0-0-0-0-0---------------0-0-0-0-0-0---------------3--3-------------------|


🎸 Verse:

G     C
A Silly Girl
     B      C
I Run around and never know my reasons
G      C
And though you're laughing
  B        C
with me I know what you say about me

E    C
I can't explain
    D        A
It's not your business any way
   E       C
So don't say you understand
    D        A
And don't pretend your on my side

G    C
And I remember when
    B       C
You hated her for sleeping next to him
G       C
I see your smiling face
  B         C
But I know you've done worse to me

E   C
You hypocrite
    D         A        E
Don't talk to me 'cause you're not fit to know me
  C
So don't pretend
   D         A
That you could've ever been a friend

E    C
And still
   D    A
I'm sure you think it's OK
E      C
What you've done
  D     A       E
To me cause I'm so bad to him
    C
Don't even
 D       A        E
Try to hide behind that stupid lie
  C
I know your
 D          A         E
Kind and I know where your loyalties lie

🎸 Solo:
E C D A (x4)

🎸 Verse:
G     C
The Silly girls
      B       C
We run around and never know our reasons
G        C
And though I understand
  B          C
I guess I'll say that you betrayed me

Em      C
I am a hypocrite
  D        A
I dish it out but I can't take it
Em      C
I know you think it's wrong
   D         A
And maybe you're right but this is my song


E    C
And still
   D     A
I'm sure you think It's Ok
E     C
What she did
  D      A
To me cause I'm so bad to him
E     C
Don't even
 D      A
try to hide behind that stupid smile
E     C
I know
   D       A           Em
Our kind and I know where our loyalties lie


The end
Love you, Miki

Almost there ...

Sign in to get your own page with links to favourite songs and more. You are just one click away...

Login with Facebook Login with Google