Log in

One click and you are in

Login with Facebook Login with Google

Why sign up and log in

Guitar Tabs Explorer
Luna Sea bass tabs for Love me

Bass tabs

-----------------------------------------------------------------
LOVE ME - LUNA SEA
-----------------------------------------------------------------

Tabbed By: truti
e-mail: etoilebr@gmail.com
Tuning: EADG

(0:24)
G|---------------------------------------------------------------|
D|---------------------------------------------------------------|
A|--00000000000000000000000000000000000000000000000000000000-----|
E|---------------------------------------------------------------|

G|---------------------------------------------------------------|
D|---------------------------------------------------------------|
A|--0003-005-007-08-07-05--003-005-01/7-7------------------------|
E|----------------------------------------7/1--------------------|

(0:34)
G|---------------------------------------------------------------|
D|---------------------------------------------------------------|
A|---------------------------------------------------------------|
E|--1-1--3-3/12--0-0--1-1--1-1--3-3/12--0-0--1-1-----------------|

G|---------------------------------------------------------------|
D|---------------------------------------------------------------|
A|---------------------------------------------------------------|
E|--1-1--3-3/12--0-0--1-1--1-1--3-3-2-1--------------------------|

(0:51)
G|---------------------------------------------------------------|
D|---------------------------------------------------------------|
A|---------------------------------------------------------------|
E|--11111111111111111111----55555555555555555555/12--------------|

G|---------------------------------------------------------------|
D|---------------------------------------------------------------|
A|---------------------------------------------------------------|
E|--00000000000000000000----33333333333333333333-2---------------|

G|---------------------------------------------------------------|
D|---------------------------------------------------------------|
A|---------------------------------------------------------------|
E|--11111111111111111111----55555555555555555555/12--------------|

G|---------------------------------------------------------------|
D|---------------------------------------------------------------|
A|---------------------------------------------------------------|
E|--00000000000000000000----333333333333333/12-3344--------------|

(1:10)
G|---------------------------------------------------------------|
D|---------------------------------------------------------------|
A|--00000000000000000000000000000000000000000000000000000000-----|
E|---------------------------------------------------------------|

G|---------------------------------------------------------------|
D|---------------------------------------------------------------|
A|--0003-005-007-08-07-05--003-005-01/7-7------------------------|
E|----------------------------------------7/1--------------------|

(1:20)
G|---------------------------------------------------------------|
D|-------------------------------------------55-77-9-9-----------|
A|--------------------------------------7-7----------------------|
E|--1-1--3-3/12--0-0--1-1--1-1--3-3/12---------------------------|

G|---------------------------------------------------------------|
D|---------------------------------------------------------------|
A|---------------------------------------------------------------|
E|--1-1--3-3/12--0-0--1-1--1-1--3-3--2--1------------------------|

(1:38)
G|---------------------------------------------------------------|
D|---------------------------------------------------------------|
A|---------------------------------------------------------------|
E|--11111111111111111111----55555555555555555555/12--------------|

G|---------------------------------------------------------------|
D|---------------------------------------------------------------|
A|---------------------------------------------------------------|
E|--00000000000000000000----33333333333333333333-2---------------|

G|---------------------------------------------------------------|
D|---------------------------------------------------------------|
A|---------------------------------------------------------------|
E|--11111111111111111111----55555555555555555555/12--------------|

G|---------------------------------------------------------------|
D|---------------------------------------------------------------|
A|--77777777777777777777-----------------------------------------|
E|--------------------------33333333333333333333-2---------------|

G|---------------------------------------------------------------|
D|---------------------------------------------------------------|
A|---------------------------------------------------------------|
E|--11111111111111111111----33333333333333333333-4---------------|

G|---------------------------------------------------------------|
D|---------------------------------------------------------------|
A|-----------------------3-5-5555555555555555555-----------------|
E|--5555555555555555-3-5-------------------------5\1-------------|

G|---------------------------------------------------------------|
D|---------------------------------------------------------------|
A|---------------------------------------------------------------|
E|--111111111111111111111----0000000000000000000000--------------|

G|---------------------------------------------------------------|
D|-----------------------------------------7-7-7-----------------|
A|------------------------3-5-5555555--7--7-7-7------------------|
E|--33-55555555555555-3-5----------------------------------------|

(2:17)
G|---------------------------------------------------------------|
D|---------------------------------------------------------------|
A|---------------------------------------------------------------|
E|--11111111111111111111----33333333333333333333-4---------------|

G|---------------------------------------------------------------|
D|---------------------------------------------------------------|
A|-----------------------3-5-5555555555555555555-77-99-----------|
E|--5555555555555555-3-5-----------------------------------------|

G|---------------------------------------------------------------|
D|---------------------------------------------------------------|
A|---------------------------------------------------------------|
E|--111111111111111111111----0000000000000000000000--------------|

G|---------------------------------------------------------------|
D|---------------------------------------------------------------|
A|------------------------3-5-555555555555555555-----------------|
E|--33-55555555555555-3-5----------------------------------------|

(2:37)
G|---------------------------------------------------------------|
D|---------------------------------------------------------------|
A|---------------------------------------------------------------|
E|--11111111111111111111----55555555555555555555/12--------------|

G|---------------------------------------------------------------|
D|---------------------------------------------------------------|
A|---------------------------------------------------------------|
E|--00000000000000000000----33333333333333333333-2---------------|

G|---------------------------------------------------------------|
D|---------------------------------------------------------------|
A|---------------------------------------------------------------|
E|--11111111111111111111----55555555555555555555/12--------------|

G|---------------------------------------------------------------|
D|---------------------------------------------------------------|
A|---------------------------------------------------------------|
E|--00000000000000000000----33333333333333333333-2-1-------------|

(3:03)
G|---------------------------------------------------------------|
D|---------------------------------------------------------------|
A|----------10-10-9----------------------------------------------|
E|--3-3/12-------------------------------------------------------|

(3:07)
G|---------------------------------------------------------------|
D|---------------------------------------------------------------|
A|---------------------------------------------------------------|
E|--11111111111111111111----55555555555555555555/12--------------|

G|---------------------------------------------------------------|
D|---------------------------------------------------------------|
A|---------------------------------------------------------------|
E|--00000000000000000000----33333333333333333333-2---------------|

G|---------------------------------------------------------------|
D|---------------------------------------------------------------|
A|---------------------------------------------------------------|
E|--11111111111111111111----55555555555555555555/12--------------|

G|---------------------------------------------------------------|
D|---------------------------------------------------------------|
A|--77777777777777777777-----------------------------------------|
E|--------------------------33333333333333333333-2---------------|

G|---------------------------------------------------------------|
D|---------------------------------------------------------------|
A|---------------------------------------------------------------|
E|--11111111111111111111----55555555555555555555/12--------------|

G|---------------------------------------------------------------|
D|---------------------------------------------------------------|
A|---------------------------------------------------------------|
E|--00000000000000000000----333333333333333/12-3344--------------|

(3:37)
G|---------------------------------------------------------------|
D|---------------------------------------------------------------|
A|--00000000000000000000000000000000000000000000000000000000-----|
E|---------------------------------------------------------------|

G|---------------------------------------------------------------|
D|---------------------------------------------------------------|
A|--0003-005-007-08-07-05--003-005-0000000000--------------------|
E|---------------------------------------------------------------|

Almost there ...

Sign in to get your own page with links to favourite songs and more. You are just one click away...

Login with Facebook Login with Google