Log in

One click and you are in

Login with Facebook Login with Google

Why sign up and log in

Guitar Tabs Explorer
Lulu bass tabs for To sir with love

Bass tabs

Intro:
G|----------------|----------------|----------------|----------------|
D|----------------|----------------|----------------|----------2-----|
A|-----2------0---|------0---4-----|--------4---2---|------2---------|
E|----------------|----------------|----------------|----------------|
Verse:
G|----------------|----------------|----------------|----------------|
D|------------2---|----------------|----------------|0-----4-----0---|
A|0---------------|0-----------0---|2-----------2---|--------0-------|
E|----------------|----------------|----------------|----------------|

G|----------------|----------------|----------------|----------------|
D|----------------|------------2---|------------2---|--------4-------|
A|0-----0-0-------|0---------------|0---------------|0-----4-----2---|
E|----------------|----------------|----------------|----------------|

G|----------------|----------------|----------------|----------------|
D|----------------|0-----0-----4---|------------2---|----------------|
A|2-----------2---|--------2-------|0---------------|0---------0-0-0-|
E|----------------|----------------|----------------|----------------|

G|----------------|----------------|----------------|----------------|
D|----------------|----------------|--------1-------|----------------|
A|----------------|4-----4-2---0---|----------------|2-----2-2-------|
E|4---------4-4-4-|----------------|4-----4-----4---|------------4---|

G|----------------|----------------|----------------|----------------|
D|----------------|2-----2-2-------|----------------|----------------|
A|2-----2-2---2---|----------------|2-----2-2---0---|----------------|
E|----------------|------------4---|----------------|2---2---2---4---|


Chorus:
G|----------------|----------------|----------------|----------------|
D|----------------|----------------|--------1-------|----------------|
A|2---2---2-------|0---0---0---0---|2-----------2---|0---0---0---0---|
E|------------2---|----------------|----4-----------|----------------|

G|----------------|----------------|----------------|----------------|
D|----------------|2-----2-----2---|----------------|4-2-------------|
A|2---2---2---2---|--------2-------|----------------|------4---2-----|
E|----------------|----------------|2---------------|----------------|

Verse:
G|----------------|----------------|----------------|----------------|
D|------------2---|----------------|----------------|0-----4-----0---|
A|0---------------|0-----------0---|2-----------2---|--------0-------|
E|----------------|----------------|----------------|----------------|

G|----------------|----------------|----------------|----------------|
D|----------------|------------2---|------------2---|--------4-------|
A|0-----0-0-------|0---------------|0---------------|0-----4-----2---|
E|----------------|----------------|----------------|----------------|

G|----------------|----------------|----------------|----------------|
D|----------------|0-----0-----4---|------------2---|----------------|
A|2-----------2---|--------2-------|0---------------|0---------0-0-0-|
E|----------------|----------------|----------------|----------------|

G|----------------|----------------|----------------|----------------|
D|----------------|----------------|--------1-------|----------------|
A|----------------|4-----4-2---0---|----------------|2-----2-2-------|
E|4---------4-4-4-|----------------|4-----4-----4---|------------4---|

G|----------------|----------------|----------------|----------------|
D|----------------|2-----2-2-------|----------------|----------------|
A|2-----2-2---2---|----------------|2-----2-2---0---|----------------|
E|----------------|------------4---|----------------|2---2---2---4---|


Chorus:
G|----------------|----------------|----------------|----------------|
D|----------------|----------------|--------1-------|----------------|
A|2---2---2-------|0---0---0---0---|2-----------2---|0---0---0---0---|
E|------------2---|----------------|----4-----------|----------------|

G|----------------|----------------|----------------|----------------|
D|----------------|2-----2-----2---|----------------|4-2-------------|
A|2---2---2---2---|--------2-------|----------------|------4---2-----|
E|----------------|----------------|2---------------|----------------|


Outro:
G|----------------|----------------|----------------|----------------|
D|----------------|----------------|----------------|----------2-----|
A|-----2------0---|------0---4-----|--------4---2---|------2---------|
E|----------------|----------------|----------------|----------------|

G|----------------|----------------|
D|----------------|----------------|
A|----0-----------|----------------|

Almost there ...

Sign in to get your own page with links to favourite songs and more. You are just one click away...

Login with Facebook Login with Google