Log in

One click and you are in

Login with Facebook Login with Google

Why sign up and log in

Guitar Tabs Explorer
L.P. tabs for Lost on you

Guitar tabs

Verse 1:
e---------------------------------------|
 --1---1---1---1--------1--------1------|
G---------------------------------------|
D------------------3---------3-------3--|
A---------------------------------------|
E---------------------------------------|
 When you get ol-der, plain-er, sane-r
e---------------------------------------------|
 --1---1---1--1-----1-------1-----------------|
G------------------------------3--1---3-------|
D---------------3-------3-------------------3-|
A---------------------------------------------|
E---------------------------------------------|
 Will you remember all the danger we came from?


Verse 2:
e---------------------------------------|
 --1---1---1---1--------1--------1------|
G---------------------------------------|
D------------------3---------3-------3--|
A---------------------------------------|
E---------------------------------------|
 Bur-ning like emb-ers,fall-ing,ten-der


e--------------------------------------------------|
 --1---1---1---1---1-------1------1----------------|
G-------------------------------------3---1----3---|
D-----------------------3-----3------------------3-|
A--------------------------------------------------|
E--------------------------------------------------|
 Long-ing for the days of no sur-rend-er years ago

e---------------------------------------|
 ----------------1----------------------|
G--0------------------------------------|
D------3----3---------------------------|
A---------------------------------------|
E---------------------------------------|
  And will you know?


Pre-chorus:
e---------------------------------------------------|
 ---------------------------------------------------|
G--1---1----3---0--1-------0------------------------|
D----------------------3-------2-----3---0---2---2--|
A---------------------------------------------------|
E---------------------------------------------------|
  So smoke 'em if you got 'em cause it's go-ing down


e---------------------------------------|
 ---------------------------------------|
G--1--3--0--1-------0-------------------|
D--------------3-------2---3------------|
A---------------------------------------|
E---------------------------------------|
  All I ev-er want-ed was you


e-------------------------------------------------|
 -------------------------------------------------|
G------1--3---0---1------0------------------------|
D--------------------3--------2---3---0-----2---2-|
A--3----------------------------------------------|
E-------------------------------------------------|
 I'll ne-ver get to hea-ven cause I don't know how


e---------------------------------------|
 --1----------1-----------1-------------|
G---------------------------------3-----|
D--------3----------3-------------------|
A---------------------------------------|
E---------------------------------------|
 Let's raise  a   glass   or     two


Chorus:
e---------------------------------------------|
 -------2----1---------------------------1----|
G--1--------------3------1----3---3--3------0-|
D---------------------------------------------|
A---------------------------------------------|
E---------------------------------------------|
  For  all  the things I've lost on you, Oh oh


e---------------------------------------|
 --1------------------------------------|
G------3---1---0----1----1----1---3-----|
D-------------------------------------3-|
A---------------------------------------|
E---------------------------------------|
 Tell me  are they lost on   you, Oh oh


e---------------------------------------|
 --2---1--------------------------1-----|
G----------3----1----3---3---3--------0-|
D---------------------------------------|
A---------------------------------------|
E---------------------------------------|
 Just so  you could cut me loose, Oh oh


e---------------------------------------|
 ---------1-----------------------------|
G--0-0-------3---1---0-----1---1--1-----|
D---------------------------------------|
A---------------------------------------|
E---------------------------------------|
  After  everything I've lost on you


e---------------------------------------|
 ---------------------------------------|
G--0---0-----1----1----1----------------|
D---------------------------------------|
A---------------------------------------|
E---------------------------------------|
  Is that  lost  on   you?


e---------------------------------------|
 --2----1-------------------------1-----|
G------------3------1----3-----------0--|
D---------------------------3-----------|
A---------------------------------------|
E---------------------------------------|
  Oh  Oh    Oh     Oh   OH-Oh    Oh  Oh


e---------------------------------------|
 --1------------------------------------|
G------3----1----0----1-----------------|
D---------------------------------------|
A---------------------------------------|
E---------------------------------------|
  Oh  Oh   Oh    Oh   Oh


e---------------------------------------|
 ---------------------------------------|
G--2---2---3----3---3-------------------|
D---------------------------------------|
A---------------------------------------|
E---------------------------------------|
  Is that lost on you?


Outro:
e---------------------------------------|
 --2----1-------------------------1-----|
G------------3------1----3-----------0--|
D---------------------------3-----------|
A---------------------------------------|
E---------------------------------------|
  Oh  Oh    Oh     Oh   OH-Oh    Oh  Oh


e------------------------------------------------|
 -1----------------------------------------------|
G----3--1---0----1---1---1----0---0---1---1---1--|
D------------------------------------------------|
A------------------------------------------------|
E------------------------------------------------|
  Ba-by is that lost on you? Is that lost on you?
ⓘ Guitar tab for 'Lost On You' by L.P., Laura Pergolizzi, a female pop-rock artist from Long Island, NY, USA. L.P. was born in 1968.

Other versions of Lost On You

Lost on YouChords
Lost on You (Ver. 2)Chords
Lost on You AcousticChords

Almost there ...

Sign in to get your own page with links to favourite songs and more. You are just one click away...

Login with Facebook Login with Google