Log in

One click and you are in

Login with Facebook Login with Google

Why sign up and log in

Guitar Tabs Explorer
L.P. bass tabs for Lost on you

Bass tabs

Key: A#m

Difficulty: Novice


Intro:

G |-----------------|----------------|8----------10/12--|10---8------------|
D |-----------------|8-----------8-6-|----------------13|--------10--10-8-6|
A |-------------8-6-|---------------8|------------------|------------------|
E |----------------8|----------------|------------------|------------------|
G |-----------------|----------------|8~---------10/12--|10---8------------|
D |-----------------|8-----------8-6-|----------------13|--------10--10-8-6|
A |8~-----------8-6-|---------------8|------------------|------------------|
E |----------------8|----------------|------------------|------------------|


G |-----------------|
D |-----------------|
A |8------------8-6-|
E |----------------8|


Verse 1:

G |----------------|----------------|----------------|----------------|
D |-8---8---8--8-6-|----------------|----------------|----------------|
A |---------------8|-6---6---6---6--|-8---8---8--8-6-|-8---8---8--8-6-|
E |----------------|----------------|---------------8|---------------8|


G |----------------|----------------|----------------|-----------------|
D |-8---8---8--8-6-|----------------|----------------|-----------------|
A |---------------8|-6---6---6---6--|-8---8---8--8-6-|-8---8--8-6--8-6-|
E |----------------|----------------|---------------8|------------8---8|

G |----------------|---------------8|----------------|----------------|
D |-8---8---8--8-6-|----------------|----------------|----------------|
A |---------------8|-6---6---6---6--|-8---8---8--8-6-|-8---8---8--8-6-|
E |----------------|----------------|---------------8|---------------8|


G |----------------|----------------|---------------|-----------------|
D |-8---8---8--8-6-|----------------|---------------|-----------------|
A |---------------8|-6---6---6---6--|-8---8---8---8-|-8-8-8-8-8-8-8-6-|
E |----------------|----------------|---------------|----------------8|


Chorus:

G |-----------------|----------------|----------------|----------------|
D |-8-8-8-8-8-8-8-6-|----------------|----------------|----------------|
A |----------------8|-6-6-6-6-6-6-6-6|-8-8-8-8-8-8-8-8|-4-4-4-4-4-4-3-3| 4x
E |-----------------|----------------|----------------|----------------|


Verse 2:

G |----------------|----------------|----------------|----------------|
D |-8---8---8--8-6-|----------------|----------------|----------------|
A |---------------8|-6---6---6---6--|-8---8---8--8-6-|-8---8---8--8-6-| 3x
E |----------------|----------------|---------------8|---------------8|


G |----------------|----------------|---------------|-----------------|
D |-8---8---8--8-6-|----------------|---------------|-----------------|
A |---------------8|-6---6---6---6--|-8---8---8---8-|-8-8-8-8-8-8-8-6-|
E |----------------|----------------|---------------|----------------8|


Chorus:

G |-----------------|----------------|----------------|----------------|
D |-8-8-8-8-8-8-8-6-|----------------|----------------|----------------|
A |----------------8|-6-6-6-6-6-6-6-6|-8-8-8-8-8-8-8-8|-4-4-4-4-4-4-3-3| 4x
E |-----------------|----------------|----------------|----------------|


Solo:

G |-----------------|----------------|-----------------|-----------------|
D |-8-8-8-8-8-8-8-6-|----------------|-----------------|-----------------|
A |----------------8|-6-6-6-6-6-6-6-6|-8-8-8-8-8-8-8-6-|-8-8-8-8-8-6-8-6-| 7x
E |-----------------|----------------|----------------8|------------8---8|


Chorus:

G |-----------------|----------------|----------------|----------------|
D |-8-8-8-8-8-8-8-6-|----------------|----------------|----------------|
A |----------------8|-6-6-6-6-6-6-6-6|-8-8-8-8-8-8-8-8|-4-4-4-4-4-4-3-3| 4x
E |-----------------|----------------|----------------|----------------|


Outro:

G |----------------|
D |----------------|
A |8---------------|
E |----------------|


***********************************

| h  Hammer-on
| x  Dead note
| /  Slide-up
| pb Pre-bend
| ~  Vibrato
| .  Staccato

***********************************

Almost there ...

Sign in to get your own page with links to favourite songs and more. You are just one click away...

Login with Facebook Login with Google