Log in

One click and you are in

Login with Facebook Login with Google

Why sign up and log in

Guitar Tabs Explorer
Low Hum bass tabs for Nebraska

Bass tabs

  • Difficulty: Beginner
Tuning: Standard (E A D G)

♫ Intro:

G|------------------------------------------|
D|------------------------------------------|
A|-6--6-6---5--5----8----6---6---5--5----8--|
E|------------------------------------------|
G|-------------------------------------|
D|-------------------------------------|
A|-6---6---5--5----8----6---6---5--5---|
E|-------------------------------------|


Main riff:

G|------------------------------------------|
D|------------------------------------------|
A|-6---6---5--5----8----6---6---5--5----8---|
E|------------------------------------------|

G|-------------------------------------|
D|-------------------------------------|
A|-6---6---5--5----8----6---6---5--5---|
E|-------------------------------------|


G|------------------------------------------|
D|------------------------------------------|
A|-6---6---5--5----8----6---6---5--5----8---|
E|------------------------------------------|

G|-------------------------------------|
D|-------------------------------------|
A|-6---6------5----8----6---6---5--5---|
E|---------6---------------------------|

Verse 1:

G|------------------------------------------|
D|------------------------------------------|
A|-6---6---5--5----8----6---6---5--5----8---|
E|------------------------------------------| x3

G|-------------------------------------|
D|-------------------------------------|
A|-6---6---5--5----8----6---6---5--5---|
E|-------------------------------------|


Main riff:

G|------------------------------------------|
D|------------------------------------------|
A|-6---6---5--5----8----6---6---5--5----8---|
E|-----------------------------------------|

G|-------------------------------------|
D|-------------------------------------|
A|-6---6---5--5----8----6---6---5--5---|
E|-------------------------------------|


♫ Chorus:

G|-------------------------------------------|
D|-------------------------------------------|
A|-10---10---10--10---------10---10---10--10-|
E|-------------------------------------------|

G|--------------------------------------|
D|--8\3---3---3--3------------8--8---10-|
A|--------------------6---6-------------|
E|--------------------------------------|


G|---------------------------------------------|
D|-10------------------------------------------|
A|---10---10---10--10-------8-10---10---10--10-|
E|-----------------------10--------------------|

G|----------------------------------------------|
D|--8\3---3---3--3------------------------8-8-8-|
A|--------------------6--6--6--6--6--6--8-------|
E|----------------------------------------------|

Transition:
You can either play it or not. In the song, the bass
has a different sound, coming in progressively

G|--------------------|
D|--------------------|
A|-6---6---5--5----8--|
E|--------------------|


Main riff:

G|------------------------------------------|
D|------------------------------------------|
A|-6---6---5--5----8----6---6---5--5----8---|
E|------------------------------------------|

G|-------------------------------------|
D|-------------------------------------|
A|-6---6---5--5----8----6---6------5\--|
E|------------------------------6------|


♫ Verse 2:

G|------------------------------------------|
D|------------------------------------------|
A|-6---6---5--5----8----6---6---5--5----8---|
E|------------------------------------------|

G|-------------------------------------|
D|-------------------------------------|
A|-6---6------5----8----6---6---5--5---|
E|---------6---------------------------|


G|------------------------------------------|
D|------------------------------------------|
A|-6---6---5--5----8----6---6---5--5----8---|
E|------------------------------------------|

G|-------------------------------------|
D|-------------------------------------|
A|-6---6---5--5----8----6---6------5\--|
E|------------------------------6------|


♫ Chorus:

G|-------------------------------------------|
D|-------------------------------------------|
A|--10---10---10--10--------10---10---10--10-|
E|-------------------------------------------|

G|--------------------------------------|
D|--8\3---3---3--3------------8--8---10-|
A|--------------------6---6-------------|
E|--------------------------------------|


G|--------------------------------------------|
D|--------------------------------------------|
A|-10---10---10--10-------8-10---10---10--10\-|
E|---------------------10---------------------|

G|------------------------------------------|
D|--3---3---3--3----------------------------|
A|------------------6--6--6--6--6--6--6--6--|
E|------------------------------------------|


♫ Bridge:
Reduce the low frequencies if you can

G|-----------------------------------------------|
D|-----------------------------------------------|
A|-7b8--7--7b8--7--7b8--7--7b8--7--6---6--6-6-6--|
E|-----------------------------------------------|

G|-----------------------------------|
D|-----------------------------------|
A|-5--5--8----6---6--6-----5b--5--8--|
E|---------------------6-8-----------|


G|-----------------------------------|
D|---------------------------12--10--|
A|-10--10-10--10-10-10-10------------|
E|-----------------------------------|


G|-----------------------------------------------|
D|-----------------------------------------------|
A|-7b8--7--7b8--7--7b8--7--7b8--7--6---6--6-6-6--|
E|-----------------------------------------------|

G|----------------------------------|
D|----------------------------------|
A|-5--5--8----6---6--6----5b--5--8--|
E|---------------------6------------|


♫ Chorus:

G|----------------------|
D|----------------------|
A|--10------------------|
E|----------------------|


G|-------------------------------------------|
D|-------------------------------------------|
A|-10---10---10--10--------10---10---10--10--|
E|-------------------------------------------|

G|--------------------------------------------|
D|--8\3---3---3--3----------------------------|
A|--------------------6--6--6--6--6--6--6--6--|
E|--------------------------------------------|


♫ Outro:

G|-------------------------------------------|
D|-------------------------------------------|
A|--10---10---10--10--------10---10---10--10-|
E|-------------------------------------------|

G|--------------------------------------|
D|--8\3---3---3--3------------8--8---10-|
A|--------------------6---6-------------|
E|--------------------------------------| x2


G|--------------------------------------------10-|
D|--------------------------------10----12-------|
A|--10---10---10--10--------10-------------------|
E|-----------------------------------------------|

G|----------------------------------------|
D|------------------------------8--8---10-|
A|--8----8----8----8----6---6-------------|
E|----------------------------------------|


G|-------------------------------------------|
D|-------------------------------------------|
A|--10---10---10--10--------10---10---10--10-|
E|-------------------------------------------|

G|--------------------------------------|
D|--8\3---3---3--3------------8--8---10-|
A|--------------------6---6-------------|
E|--------------------------------------|


************************************

| b  Bend
| /  Slide up
| \  Slide down

************************************

Almost there ...

Sign in to get your own page with links to favourite songs and more. You are just one click away...

Login with Facebook Login with Google