Log in

One click and you are in

Login with Facebook Login with Google

Why sign up and log in

Guitar Tabs Explorer
Lovejoy bass tabs for Knee deep at atp

Bass tabs with lyrics

Key: E

Pretty simple song, you can add little flourishes into the verse section.


Intro:

G|-----------------|-----------------|-----------------|-----------------|
D|-----------------|-----------------|-----------------|-----------------|
A|-----------------|-4-4-4-4-4-4-4-4-|-----------------|-----------------|
E|-0-0-0-0-0-0-0-0-|-----------------|-2-2-2-2-2-2-2-2-|-5-5-5-5-5-5-5-5-| (x2)

G|-----------------|-----------------|-----------------|-----------------|
D|-----------------|-----------------|-----------------|-----------------|
A|-----------------|-----------------|-----------------|-----------------|
E|-0-0-0-0-0-0-0-0-|-4-4-4-4-4-4-4-4-|-2-2-2-2-2-2-2-2-|-5-5-5-5-5-5-5-5-|

G|-----------------|-----------------|-----------------|-------------------|
D|-----------------|-----------------|-----------------|-------------------|
A|-----------------|-4-4-4-4-4-4-4-4-|-----------------|-------------------|
E|-0-0-0-0-0-0-0-0-|-----------------|-2-2-2-2-2-2-2-2-|-5-5-5-5-5-5-5-5-5-|


Verse:

  (vocals don't start until second time)
G|----------|-----------|-------------|------------|
D|----------|-----------|-------------|------------|
A|----------|-----------|-------------|------------|
E|-0--------|-/9--------|-9\2---0-2-0-|-5---5-7-5\-| (x3)

  "each of eight fingers gripping what he wrote "
G|----------|----------|------------|------------|
D|----------|----------|------------|------------|
A|----------|----------|------------|------------|
E|-0--------|-4--------|-\2---0-2-0-|-5---5-7-5\-|

  "and for each correctly used apostrophy "
G|----------|-----------|-------------|------------|
D|----------|-----------|-------------|------------|
A|----------|-----------|-------------|------------|
E|-0--------|-/9--------|-9\2---0-2-0-|-5---5-7-5\-| (x2)

  "you said every photo that you took "
G|----------|----------|------------|------------|
D|----------|----------|------------|------------|
A|----------|----------|------------|------------|
E|-0--------|-4--------|-\2---0-2-0-|-5---5-7-5\-|

  "and I know he took you to the beach "
G|----------|-----------|-------------|------------|
D|----------|-----------|-------------|------------|
A|----------|-----------|-------------|------------|
E|-0--------|-/9--------|-9\2---0-2-0-|-5---5-7-5\-|

Pre-Chorus:

  "and when our eyes meet "
G|----------|----------|-----------------------------------|
D|----------|----------|-----------------------------------|
A|----------|----------|-----------------------------------|
E|-0--------|-4--------|-2---2-2-2-0-2-0-2-0-0-0-0-0-0-0-0-|


Chorus:

G|-----------------|-----------------|-----------------|-----------------|
D|-----------------|-----------------|-----------------|-----------------|
A|-----------------|-4-4-4-4-4-4-4-4-|-----------------|-----------------|
E|-0-0-0-0-0-0-0-0-|-----------------|-2-2-2-2-2-2-2-2-|-5-5-5-5-5-5-5-5-| (x2)

  "It's not what you like it's what you like as a person "
G|---------|---------|---------|---------|
D|---------|---------|---------|---------|
A|---------|---------|---------|---------|
E|-0-0-0-0-|-4-4-4-4-|-2-2-2-2-|-5-5-5-5-| (x2)
  > > > >  > > > >  > > > >  > > > >

ENDS LIKE THIS!
G|----------------|
D|----------------|
A|----------------|
E|-5-5-5-5-5-5-5~-|
  > >


☠☠☠☠☠☠☠☠☠☠☠☠☠☠☠☠☠☠☠☠☠☠☠☠☠☠☠☠☠☠☠☠☠☠☠☠
| >  Accented note
| /  Slide up
| \  Slide down
| ~  Vibrato
☠☠☠☠☠☠☠☠☠☠☠☠☠☠☠☠☠☠☠☠☠☠☠☠☠☠☠☠☠☠☠☠☠☠☠☠

Almost there ...

Sign in to get your own page with links to favourite songs and more. You are just one click away...

Login with Facebook Login with Google