Blackout In The Red Room by Love Hate

Blackout In The Red Room bass tab by Love Hate

Bass tabs

Blackout in the Red Room
    ========================
            Love Hate
Intro     /.\
|-----------------|-----------------|-----------------|-----------------|
|-----------------|-----------------|-----------------|-----------------|
|---------5-------|---------5-------|-----------------|-----------------|
|-0---3--------3--|-0---3------3----|-----------------|-----------------|


Verse
|-----------------|-----------------|-----------------|-----------------|
|o----------------|-----------------|-----------------|----------------o|
|o----------------|-----------------|-----------------|---------5------o|
|-5---------------|-0---------------|-5---------------|-0---3------3----|

Chorus
|-----------------|-----------------|-----------------|-----------------|
|-----------------|-----------------|-----------------|-----------------|
|-3-------------5-|-5---------------|-3-------------5-|-5---------------|
|-------3---------|---5-------------|-------3---------|---5-------------|
        \___/                \___/

Find guitar tabs and chords

A B C D E F G H I J K L M N O P Q R S T U V W X Y Z #