Log in

One click and you are in

Login with Facebook Login with Google

Why sign up and log in

Guitar Tabs Explorer
Love And Rockets tabs for Mirror people

Guitar tabs with lyrics

Couldn't find a tab for this song ANYWHERE, so I thought I would just learn it by ear.
It sounds right to me.

Standard tuning & heavy distortion
Intro

e-----------------------------------|
B-----------------------------------|
G-----------------------------------|
D-5-5-5-7-7-7-7-7-7-7-7-7-7-7-7-7-7-|
A-5-5-5-7-7-7-7-7-7-7-7-7-7-7-7-7-7-|
E-3-3-3-5-5-5-5-5-5-5-5-5-5-5-5-5-5-| x2


e---------|
B---------|
G---------|
D-5-5-5-7-|
A-5-5-5-7-|
E-3-3-3-5-| x2

(no guitar)

I'm so happy with my feet on the ground
So happy, my head spins around
Quite content to sit on this fence


                   e------------|
                   B------------|
                   G------------|
                   D-5-5-5-7--5-|
                   A-5-5-5-7--5-|
                   E-3-3-3-5--3-|

Quite content now, a little bit older

Verse
e------------------------------------|
B------------------------------------|
G------------------------------------|
D-7-7-7-7-7-7-7-7-7-7-7-7-7-7--5-5-5-|
A-7-7-7-7-7-7-7-7-7-7-7-7-7-7--5-5-5-|
E-5-5-5-5-5-5-5-5-5-5-5-5-5-5--3-3-3-| x8

The mirror people one day shall be free
The mirror people laugh at you and laugh at me
The mirror people, know not how to cry
So they scream, the mirror people scream inside

e---------|
B---------|
G---------|
D-5-5-5-7-|
A-5-5-5-7-|
E-3-3-3-5-| x4

Because I should be nothing at all
Because I should be nothing at all
I wish I could be nothing at all
I wish I could be nothing at all


Chorus

E-17-17-x-x-x-17-17-x-x-|
B-17-17-x-x-x-17-17-x-x-|
G-14-14-x-x-x-14-14-x-x-|
D-----------------------|
A-----------------------|
E-----------------------|

Time goes by so slow
When your stuck to me
Time goes by so slow
When your stuck to me


Bridge/Post Chorus

e-----------------|
B-----------------|
G-7-----------6---|
D--7-----------6--|
A---5-----------4-|
E---5-----------4-| x3

e-----------------|
B-----------------|
G-5-----------4---|
D--5-----------4--|
A---3-----------2-|
E---3-----------2-|

e-----------------|
B-----------------|
G-4-----------4---|
D--4-----------4--|
A---2-----------2-|
E---2-----------2-|

Yes it's true we're all in a gutter
And yes it's true please set me free
The christian says
I love love everybody
And you and you and you can be free
But I'm so happy with my feet on the ground
So happy my head spins around
Quite content to sit on this fence
Quite content
Now a little bit older

e---------|
B---------|
G---------|
D-5-5-5-7-|
A-5-5-5-7-|
E-3-3-3-5-| x3

Because I could be nothing at all
Because I should be nothing at all
I wish I could be nothing at all

e-----|
B-----|
G-----|
D-5-5-|
A-5-5-|
E-3-3-|

I wish I could be nothing at all


Chorus

E-17-17-x-x-x-17-17-x-x-|
B-17-17-x-x-x-17-17-x-x-|
G-14-14-x-x-x-14-14-x-x-|
D-----------------------|
A-----------------------|
E-----------------------|

Time goes by so slow
When your stuck to me
Time goes by so slow
When your stuck to me


Couldn't figure out the crazy solo at the end :P

Almost there ...

Sign in to get your own page with links to favourite songs and more. You are just one click away...

Login with Facebook Login with Google