Log in

One click and you are in

Login with Facebook Login with Google

Why sign up and log in

Guitar Tabs Explorer
Love Aaj Kal guitar tabs for Shayad

Guitar tabs

A chord diagramE MajorE |-------|--0-------------------------------------------------|
A chord diagramBB |-------|--------1--3L-3L----3L-------3L----------3----------|
A chord diagramG+G |-------|-----0----------------------------------------------|
A chord diagramD MajorD |-------|----------------------------------------------------|
A chord diagramA augmentedA |-------|--3L-3L-3-------------------------------------------|
A chord diagramE MajorE |-------|-----------3L-3L----3L-------3L----------3----------|
--0-------------------------------------------------|
--------1--3L-3L----3L-------3L----------3----------|
-----0----------------------------------------------|
----------------------------------------------------|
--3L-3L-3-------------------------------------------|
-----------3L-3L----3L-------3L----------3----------|


--------------0L-0L-------0-----------0L-0L-------0----|
-----------1-----------------------3-------------------|
--------2----------------------------------------------|
-----------------------------4--5----------------------|
--0----------------------------------------------------|
-----------------------------2-------------------------|


-----------0L-0L-0L-------0L----------------0-------|
--------0-----------------------------------12------|
-----0----------------------------------------------|
--2-------------------------------------------------|
----------------------------------------------------|
--0L-0L-0L-0----------------------------------------|


--12-12----10-10-------7--7--------8--7--5--3-------|
----------------------------------------------------|
----------------------------------------------------|
----------------------------------------------------|
----------------------------------------------------|
----------------------------------------------------|

--5-----10L---10-------------------------------7----|
----------------------------------------------------|
----------------------------------------------------|
----------------------------------------------------|
----------------------------------------------------|
----------------------------------------------------|


--5--------7--5--------7--5--------7--5--3--2-------|
----------------------------------------------------|
----------------------------------------------------|
----------------------------------------------------|
----------------------------------------------------|
----------------------------------------------------|


--3-------------------------|
-----------------------12---|
----------------------------|
----------------------------|
----------------------------|
----------------------------|


--12-12----10-10-------7--7--------8--7--5--3-------|
----------------------------------------------------|
----------------------------------------------------|
----------------------------------------------------|
----------------------------------------------------|
----------------------------------------------------|


--5-----10L---10-------------------------------7----|
----------------------------------------------------|
----------------------------------------------------|
----------------------------------------------------|
----------------------------------------------------|
----------------------------------------------------|


--5--------7--5--------7--5--------7--5--3--2-------|
----------------------------------------------------|
----------------------------------------------------|
----------------------------------------------------|
----------------------------------------------------|
----------------------------------------------------|


--3--------------------------------7--7--10-10-10L--|
----------------------------------------------------|
----------------------------------------------------|
----------------------------------------------------|
----------------------------------------------------|
----------------------------------------------------|


--10----7L----7--------------------7--7-----7-------|
----------------------------------------------------|
----------------------------------------------------|
----------------------------------------------------|
----------------------------------------------------|
----------------------------------------------------|


--7--8--7--5L-5--------------------7--7--10-10-10L--|
----------------------------------------------------|
----------------------------------------------------|
----------------------------------------------------|
----------------------------------------------------|
----------------------------------------------------|


--10-12-------------10-7L-7--------7--7-----7-------|
-----------12----10---------------------------------|
----------------------------------------------------|
----------------------------------------------------|
----------------------------------------------------|
----------------------------------------------------|


--7--8--7--5--------3--5L-5-----------5--3-----5----|
----------------------------------------------------|
----------------------------------------------------|
----------------------------------------------------|
----------------------------------------------------|
----------------------------------------------------|


-----------------10----10-10----10-------8-----8----|
--3-----3-------------------------------------------|
----------------------------------------------------|
----------------------------------------------------|
----------------------------------------------------|
----------------------------------------------------|


--8--10-8--7L-7L----------------7--7--7--10-10-10L--|
----------------------------------------------------|
----------------------------------------------------|
----------------------------------------------------|
----------------------------------------------------|
----------------------------------------------------|


--10-12----15-14-15-12-10L10-------7--7-----7-------|
----------------------------------------------------|
----------------------------------------------------|
----------------------------------------------------|
----------------------------------------------------|
----------------------------------------------------|


--7--8--7--5L-5L----------------5--15-14----15-10L--|
----------------------------------------------------|
----------------------------------------------------|
----------------------------------------------------|
----------------------------------------------------|
----------------------------------------------------|


--10-12-------------10-7L-7--------7--7-----7-------|
-----------12----10---------------------------------|
----------------------------------------------------|
----------------------------------------------------|
----------------------------------------------------|
----------------------------------------------------|


--7--8--7--5--------3--5--------------5--3-----5----|
----------------------------------------------------|
----------------------------------------------------|
----------------------------------------------------|
----------------------------------------------------|
----------------------------------------------------|


-----------------10----10-10----10-------8-----8----|
--3-----3-------------------------------------------|
----------------------------------------------------|
----------------------------------------------------|
----------------------------------------------------|
----------------------------------------------------|


--8--10-8--7L-7-------------------------------------||
----------------------------------------------------||
----------------------------------------------------||
----------------------------------------------------||
----------------------------------------------------||
----------------------------------------------------||

Almost there ...

Sign in to get your own page with links to favourite songs and more. You are just one click away...

Login with Facebook Login with Google