Que Vida by Love

Que Vida chords by Love

Guitar chords with lyrics

"Que Vida!"
               (Arthur Lee)


Intro [fingerpicked electric w/hi-hat]:

   A         B        D6        E7
   v  v  v  v   v  v  v  v   v  v  v  v   v  v  v  v
  -------5-7---5---|-------7-9---7---|-------7-8---9---|-----------------
  -----5-----------|-----7-----------|-----7-----------|-8---9---8---9---
  ---6-------------|---8-------------|---7-------------|---7---7---7---7-
  -7---------7---7-|-9---------9---9-|-7---------7---7-|-----------------
  -----------------|-----------------|-----------------|-----------------
  -----------------|-----------------|-----------------|-----------------
         (slide)


Instrumental break 1:

	 A    G#addE    G6     F#7
	xx7650   xx6540   xx5430   xx4320 [hammer on to xx4324]
	 / / / /  / / / /  / / / /  / / / /

	D   Fmaj7   A    E7
	/ / / / / / / / / / / / / / / /

Verse 1:

	A          B
	With pictures ...
	D6     E7
	Is this ...
	A           B
	The sounds that ...
	D6      E7
	The growling voice ...
	D6     E7
	And yes my heart ...
	D6     E7
	Or was it ...

[repeat instrumental break 1]

Verse 2:

	With nickels and .....

[repeat instrumental break 1]

Instrumental break 2:

	[play 2X:]

	E7
	 v   v   v   v    v   v   v   v
	----0--0--0--0--------0--|----0-----0-----0-----0--
	----------14-15----------|-17----15----14----15----
	-------13----------------|-------------------------
	----14-------------------|-------------------------
	-------------------------|-------------------------
	-------------------------|-------------------------

	 A
	 v   v   v   v    v   v   v   v
	----0--0--0--0-----0-----|-0-----0-----0-----0-----
	----------10-12----10----|-12----10----------------
	-------9-----------------|-------------11----9-----
	----11-------------------|-------------------------
	-------------------------|-------------------------
	-------------------------|-------------------------

	D   Fmaj7   A    B
	/ / / / / / / / / / / / / / / /

	D   Fmaj7   A    E7
	/ / / / / / / / / / / / / / / /

Verse 3:

	Can you find ....

[repeat instrumental break 1]

Verse 4:

	I once had a .....

[repeat instrumental break 1]

[repeat intro riff; slow down at end; sleigh bells to fade]


-- another ace 60's tab from Andrew Rogers

Find guitar tabs and chords

A B C D E F G H I J K L M N O P Q R S T U V W X Y Z #