My Flash On You by Love

My Flash On You chords by Love

Guitar chords with lyrics

"My Flash On You"
               (Arthur Lee)

Intro:

	rhythm guitar (alone):

	D  G  C  E   A
	/ . / . / . / .  / / / / / / / /

	(band enters):

	A
	/ / / / / / / /

Verse 1:

	D    G   C     E   A
	I don't want to be in ...
	D    G  C     E     A
	I don't need you to ...
	     D       G       C        E   A
	Let me alone, let me alone,....
	    D       G     C      E     A
	All I want in this world is ...

Verse 2:

	People talk about the way I ....

	fuzz bass solo [2X]:

	 D    G     C    E
	 v  v  v  v   v  v  v  v
	-------------4-7-|-------------1-4-
	-----4-7-5--5----|-----2-5-2--2----
	-5--5------------|-3--3------------
	-----------------|-----------------

	 A
	 v  v  v  v   v  v  v  v
	-----------------|-----------------
	-----------------|-----------------
	-----------------|-----------------
	-5---3-5---3-5-3-|-5---3-5---3-5-3-

Verse 3:

	Don't try to force your smuggled .....

[repeat fuzz bass solo]

[repeat intro; end cold on A]


-- another ace 60's tab from Andrew Rogers

Find guitar tabs and chords

A B C D E F G H I J K L M N O P Q R S T U V W X Y Z #