Andmoreagain by Love

Andmoreagain bass tab by Love

Bass tabs

Tabbed by: 6METAL6BASSIST6
E-mail: petergriffinav@gmail.com

Tuning: EADG

0:05

G|----------------------------------------------------------------|
D|3-------2---3---5---3---2---------------------------------------|
A|----------------------------3---5---------------5---5-----------|
E|--------------------------------------------5-----------5-------|

G|----------------------------------------------------------------|
D|------------------------------------------------2---5---2-------|
A|------------------------3---5---7-----------3---------------5---|
E|5-----------3---5---5-------------------------------------------|

G|----------------------------------------4---5---7---5---4-------|
D|--------2---3---5---3---2-------5---7---------------------------|
A|3---5-----------------------------------------------------------|
E|----------------------------------------------------------------|

G|----------------------------------------------------------------|
D|--------------------------------------------------------7---\---|
A|5-----------5---5---------------5-----------5---5---------------|
E|----------------------------------------------------------------|

G|----------------2-------5---------------------------------------|
D|3-----------3-------3-------------------------------------------|
A|--------------------------------3---3-------3-------3-----------|
E|----------------------------------------------------------------|

G|--------------------------------|
D|--------------------------------|
A|3---3-------3-----------3-------|
E|--------------------------------|

0:33

G|----------------------------------------------------------------|
D|3-------2---3---5---3---2---------------------------------------|
A|----------------------------3---5---------------5---5-------5---|
E|--------------------------------------------5-----------5-------|

G|----------------------------------------------------------------|
D|------------------------------------------------2---5---2-------|
A|------------------------3---5---7-----------3---------------5---|
E|5-----------3---5-----------------------------------------------|

G|----------------------------------------4---5---7---5---4-------|
D|--------2---3---5---3---2-------5---7---------------------------|
A|3---5-----------------------------------------------------------|
E|----------------------------------------------------------------|

G|----------------------------------------------------------------|
D|--------------------------------------------------------7---\---|
A|5-----------5---5---------------5-----------5---5---------------|
E|----------------------------------------------------------------|

G|----------------2-------5---------------------------------------|
D|3-----------3-------3-------------------------------------------|
A|--------------------------------3---3-------3-------3-----------|
E|----------------------------------------------------------------|

G|--------------------------------|
D|--------------------------------|
A|3---3-------3-----------3-------|
E|--------------------------------|

0:59

G|----------------------------------------------------------------|
D|0---------------5-------0---5-----------2-----------------------|
A|--------------------------------3-----------3---2-------0---2---|
E|----------------------------------------------------------------|

G|2-----------0---------------------------------------------------|
D|----------------3---2---0-----------------------2-----------2---|
A|--------------------------------3-----------3-------------------|
E|----------------------------------------------------------------|

G|----------------------------------------------------------------|
D|--------------------------------0---------------5-------0---5---|
A|2-----------2---2-------2---------------------------------------|
E|----------------------------------------------------------------|

G|--------------------------------2-----------0-------------------|
D|--------2---------------------------------------3---2---0-------|
A|3-----------3---2-------0---2-----------------------------------|
E|----------------------------------------------------------------|

G|----------------------------------------------------------------|
D|----------------2-----------2-----------------------------------|
A|3-----------3-------------------2-----------2---2-------2-------|
E|----------------------------------------------------------------|

1:23

G|--------------------------------2-------2-------2---------------|
D|2-------2-------2-----------2-----------------------------------|
A|----------------------------------------------------------------|
E|----------------------------------------------------------------|

G|----------------------------------------------------------------|
D|3-------------------3---3---3---4-------------------------------|
A|----------------------------------------------------------------|
E|----------------------------------------------------------------|

1:33

G|----------------------------------------------------------------|
D|0---------------5-------0---5-----------2-----------------------|
A|--------------------------------3-----------3---2-------0---2---|
E|----------------------------------------------------------------|

G|2-----------0---------------------------------------------------|
D|----------------3---2---0-----------------------2---------------|
A|--------------------------------3-----------3-------------------|
E|----------------------------------------------------------------|

G|----------------------------------------------------------------|
D|--------------------------------0---------------5-------0---5---|
A|2-----------2---2-------2---------------------------------------|
E|----------------------------------------------------------------|

G|--------------------------------2-----------0-------------------|
D|--------2---------------------------------------3---2---0-------|
A|3-----------3---2-------0---2-----------------------------------|
E|----------------------------------------------------------------|

G|----------------------------------------------------------------|
D|----------------2-----------------------------------------------|
A|3-------------------------------2-----------2---2---------------|
E|----------------------------------------------------------------|

1:56

G|----------------------------------------------------------------|
D|3-------2---3---5---3---2---------------------------------------|
A|----------------------------3---5---------------5-------5---5---|
E|----------------------------------------------------5-----------|

G|----------------------------------------------------------------|
D|------------------------------------------------2---5---2-------|
A|------------------------3---5---7-----------3---------------5---|
E|5-----------3---5-----------------------------------------------|

G|----------------------------------------4---5---7---5---4-------|
D|--------2---3---5---3---2-------5---7---------------------------|
A|3---5-----------------------------------------------------------|
E|----------------------------------------------------------------|

G|----------------------------------------------------------------|
D|--------------------------------------------------------7---\---|
A|5-----------5---5---------------5-----------5---5---------------|
E|----------------------------------------------------------------|

G|----------------2-------5---------------------------------------|
D|3-----------3-------3-------------------------------------------|
A|--------------------------------3---3-------3-------3-----------|
E|----------------------------------------------------------------|

G|--------------------------------|
D|--------------------------------|
A|3---3-------3-----------3-------|
E|--------------------------------|

2:24

G|----------------------------------------------------------------|
D|0---------------5-------0---5-----------2-----------------------|
A|--------------------------------3-----------3---2-------0---2---|
E|----------------------------------------------------------------|

G|2-----------0---------------------------------------------------|
D|----------------3---2---0-----------------------2---------------|
A|--------------------------------3-----------3-------------------|
E|----------------------------------------------------------------|

G|----------------------------------------------------------------|
D|--------------------------------0---------------5-------0---5---|
A|2-----------2---2-------2---------------------------------------|
E|----------------------------------------------------------------|

G|--------------------------------2-----------0-------------------|
D|--------2---------------------------------------3---2---0-------|
A|3-----------3---2-------0---2-----------------------------------|
E|----------------------------------------------------------------|

G|----------------------------------------------------------------|
D|----------------2-----------2-----------------------------------|
A|3-----------3-------------------2-----------2---2-------2-------|
E|----------------------------------------------------------------|

2:48

G|--------------------------------2---------------2-------2-------|
D|2---------------------------------------------------------------|
A|----------------------------------------------------------------|
E|----------------------------------------------------------------|

G|----------------------------------------------------------------|
D|3-------3-------3---------------4-------------------------------|
A|----------------------------------------------------------------|
E|----------------------------------------------------------------|

2:56

G|----------------------------------------------------------------|
D|--------0-------5-------0---5-----------2-----------------------|
A|--------------------------------3-----------3---2-------0---2---|
E|----------------------------------------------------------------|

G|2-----------0---------------------------------------------------|
D|----------------3---2---0-----------------------2---------------|
A|--------------------------------3-------------------------------|
E|----------------------------------------------------------------|

G|----------------------------------------------------------------|
D|----------------------------------------3-------4---------------|
A|2-----------2---2-------2---------------------------------------|

Find guitar tabs and chords

A B C D E F G H I J K L M N O P Q R S T U V W X Y Z #