Always See Your Face by Love

Always See Your Face tab by Love

Guitar tabs

hey all.
 k this is a pretty easy song once u get the hang of it. i dont know if I have the Chorus right but I do have the verses. this is my first tab so i might make some errors:


INTRO:
   C        E      Am       F
E--------------------------------------0------------1-----
B-----------1------------0----------1------------1--------
G--------0------------1----------2------------2-----------
D-----2------------2---------2-------------3--------------
A--3------------2-----------------------------------------
E---------------------------------------------------------

         E
e----------1-------------------
b-------2----------------0-----
g----2---------------1---------
d-0---------------2------------  --and the last two chords
a--------------2---------------   in this measure are C and
e------------------------------   E, played like this (I
                   think):

----------0----0-------
----------1----0-------
----------0----1-------
-------2-------2-------
----3----------2-------
---------------0-------

Then for the verses, just fingerpick the last 2chords C and E, and repeat as necessary.

C    E......same as Intro
"Won't Somebody . . . .

CHORUS (i'm not to sure about this one but this is how I play it:)
 C    E
 and i know. . .
 C    E
 and i say . . .
 C    E
 and i know..."
 E      Am
 not let  . . .

   When you get to "always see your face" part just go back to the intro, then the verse (whatta difference) . . .easy song... . . .blah blah, you'll get the idea after a while. you will probably have to listen to the song.
  my name's marilyn, email bozotheclownn666@aol.com PEACE
~*marilyn*~

Find guitar tabs and chords

A B C D E F G H I J K L M N O P Q R S T U V W X Y Z #