Alone Again Or by Love

Alone Again Or bass tab by Love

Bass tabs

Tuning: Standard (E A D G)

Verse:
G|----------------------------|-----------------------------|----------------------------|------------------|
D|------------4-------------4-|-------5-------------5-------|------------4-------------4-|------------------|
A|-4--(1)---4----4--(1)---4---|----(5)---5-5-----(5)----5-5-|-4--(1)---4----4--(1)---4---|-2---4-5-2--------|
E|-------2-------------2------|-3-------------3-------------|-------2-------------2------|------------------|


G|----------------------|----------------------|----------------------|------------|----------------------|
D|----------------------|----------------------|----------------------|-4----------|----------------------|
A|-2---4-5-2--4---4-4-0-|-----0-0----2---2-2-2-|-0---2-4-0--2-------4-|---4-1------|-----5-5---5--5-5-5-5-|
E|----------------------|-2-------2------------|----------------2-2---|-------2----|----------------------|

G|-----------------|-------------|
D|-7--7--7--7--7-7-|-7--5-4--2-0-|
A|-----------------|-------------|
E|-----------------|-------------|

*repeats 4 times



************************************

| (n) Ghost note

************************************

Find guitar tabs and chords

A B C D E F G H I J K L M N O P Q R S T U V W X Y Z #