Log in

One click and you are in

Login with Facebook Login with Google

Why sign up and log in

Guitar Tabs Explorer
Pixie Lott tabs for Lay me down

Guitar tabs

Intro & Verse: A chord diagramE minorEm | A chord diagramG+G | A7sus2
Eb------7------7-------3--------------------|
Ab------7------8-------3-------5------------|
Db------7------7---------------4------------|
Gb------7------9---------------5------------|
Bb------7------7-------2-------x------------|
Eb---------------------3-------5------------|


PreChorus & Chorus: A chord diagramC majorC | A chord diagramB minorBm | A chord diagramD MajorD | A7sus2
Eb-------------------------------2----------------------|
Ab---------8---------3-----------3--------5-------------|
Db---------9---------------------2--------4-------------|
Gb--------10---------4--------------------5-------------|
Bb---------x---------2--------------------x-------------|
Eb---------8------------------------------5-------------|

Other versions of Lay Me Down

Lay me downChords

Almost there ...

Sign in to get your own page with links to favourite songs and more. You are just one click away...

Login with Facebook Login with Google