Log in

One click and you are in

Login with Facebook Login with Google

Why sign up and log in

Guitar Tabs Explorer
Los Retros bass tabs for Its got to be you

Bass tabs

Tuning: Standard (E A D G)


Intro 0:11:

G|-----5-5/7\5-------------------------5-5/7\5------------------|
D|--3------------------5-5/7\5------3------------------5-5/7\5--|
A|------------------3-------------------------------3-----------|
E|--------------------------------------------------------------|

G|-----5-5/7\5-------------------------5-5/7\5------------------|
D|--3------------------5-5/7\5------3------------------5-5/7\5--|
A|------------------3-------------------------------3-----------|
E|--------------------------------------------------------------|


Verse 1: 0:33:

G|-----5-5/7\5---------5-5/7\5----------------------------------|
D|--3---------------3------------------5-5/7\5---------5-5/7\5--|
A|----------------------------------3---------------3-----------|
E|--------------------------------------------------------------|

G|-----5-5/7\5---------5-5/7\5----------------------------------|
D|--3---------------3------------------5-5/7\5---------5-5/7\5--|
A|----------------------------------3---------------3-----------|
E|--------------------------------------------------------------|


Chorus: 0:56:

G|-----5-5/7\5-------------------------5-5/7\5------------------|
D|--3------------------5-5/7\5------3------------------5-5/7\5--|
A|------------------3-------------------------------3-----------|
E|--------------------------------------------------------------|

G|-----5-5/7\5-------------------------5-5/7\5------------------|
D|--3------------------5-5/7\5------3------------------5-5/7\5--|
A|------------------3-------------------------------3-----------|
E|--------------------------------------------------------------|


Verse 2: 1:17:

G|-----5-5/7\5---------5-5/7\5----------------------------------|
D|--3---------------3------------------5-5/7\5---------5-5/7\5--|
A|----------------------------------3---------------3-----------|
E|--------------------------------------------------------------|

G|-----5-5/7\5---------5-5/7\5----------------------------------|
D|--3---------------3------------------5-5/7\5---------5-5/7\5--|
A|----------------------------------3---------------3-----------|
E|--------------------------------------------------------------|


Chorus: 1:39:

G|-----5-5/7\5---------5-5/7\5----------------------------------|
D|--3---------------3------------------5-5/7\5---------5-5/7\5--|
A|----------------------------------3---------------3-----------|
E|--------------------------------------------------------------|

G|-----5-5/7\5---------5-5/7\5----------------------------------|
D|--3---------------3------------------5-5/7\5---------5-5/7\5--|
A|----------------------------------3---------------3-----------|
E|--------------------------------------------------------------|


Bridge: 2:02:

G|-----5-5/7\5---------5-5/7\5-----------4/6\4-----------4/6\4--|
D|--3---------------3---------------2-2-------------2-2---------|
A|--------------------------------------------------------------|
E|--------------------------------------------------------------|

G|-------4/6\4-----------2/4\2----------------------------------|
D|--2-2-------------2-2------------------2/4\2-----------2/4\2--|
A|----------------------------------0-0-------------0-0---------|
E|--------------------------------------------------------------|


Bridge: 2:24:

G|-------------------------------------------7/9\7-----------5/7\5--|
D|-----------5/7\5-----------7/9\7------5-5-------------5-5---------|
A|-0-3-5--5-------------5-5-----------------------------------------|
E|------------------------------------------------------------------|

G|------------------------------------------------9---8h9--9-7-4----|
D|-------5/7\5-----------5/7\5----------------9-7----------------2--|
A|--3-3-------------3-3---------3-5-7------7------------------------|
E|------------------------------------------------------------------|


Outro: 2:46:

G|-----5-5/7\5---------5-5/7\5----------------------------------|
D|--3---------------3------------------5-5/7\5---------5-5/7\5--| x5
A|----------------------------------3---------------3-----------|
E|--------------------------------------------------------------|

G|-----5-5/7\5---------5-5/7\5------------------|
D|--3---------------3------------------5-5/7\5--|
A|----------------------------------3-----------|
E|----------------------------------------------|


************************************

| /  Slide up
| \  Slide down
| h  Hammer on

************************************

Almost there ...

Sign in to get your own page with links to favourite songs and more. You are just one click away...

Login with Facebook Login with Google