Log in

One click and you are in

Login with Facebook Login with Google

Why sign up and log in

Guitar Tabs Explorer
Lordi bass tabs for Hug you hardcore

Bass tabs

  • Difficulty: Intermediate
 Intro:


F|---------------------------------------------------------------------------|
C|---------------------------------------------------------------------------|
G|---------------------------------------------------------------------------|
D|-0-0-0-0--0-0-0-0--0-0-0-0--0-0-0-0--0-0-0-0--0-0-0-0--0-0-0-0--0-0-0-0----|



F|---------------------------------------------------------------------------|
C|-----------------X8--------------------------------------------------------|
G|---------------------------------------------------------------------------|
D|-0-0-0-0-10PBR-------------------------------------------------------------|
Pre bend the D String on the 10th and play it until its back to normal

 Verse 1:

F|---------------------------------------------------------------------------|
C|---------------------------------------------------------------------------|
G|---------------------------3----------------REPEAT-------------------------|
D|-3-3-3-6---3-3-3-1---3-3-3----0-0-0-0-10PBR--------------------------------|


 Pre-Chorus:

F|----------------------------------------------------------------------------------|
C|---4----4---4---4---7---7---7---7---9---9---9---9---10---10---10----12----12----12|
G|----------------------------------------------------------------------------------|
D|-2----2---2---2---5---5---5---5---7---7---7---7---8----8----8----10----10----10---|


 Chorus:

F|---------------------------------------------------------------------------|
C|---------------------------------------------------------------------------|
G|-----------------3-3-3-3----5-5-5-5------------3-3-3-3-3-------------------|
D|--0-0-0-0-10PBR-----------------------3-3-3-3--------------0-0-0-0-10PBR---|

F|---------------------------------------------------------------------------|
C|---------------------------------------------------------------------------|
G|-3-3-3-3----5-5-5-5-----------3-3-3-3--------------------------------------|
D|---------------------3-3-3-3-----------------------------------------------|


Pre-

 Verse :

F|---------------------------------------------------------------------------|
C|---------------------------------------------------------------------------|
G|---------------------------------------------------------------------------|
D|0-0-0-0----0-0-0-0----0-0-0-0---0-0-0-0----/12---0-0-0-0-10PBR-X4----------|
 Verse 2:

F|---------------------------------------------------------------------------|
C|---------------------------------------------------------------------------|
G|---------------------------3-----------------------------------------------|
D|-3-3-3-6---3-3-3-1---3-3-3----0-0-0-0-10PBR-----3-3-3----3-3-3----3-3-3----|

F|---------------------------------------------------------------------------|
C|---------------------------------------------------------------------------|
G|---------------------------------------------------------------------------|
D|--0-0-0-0-10PBR------------------------------------------------------------|


 Pre-Chorus:

F|----------------------------------------------------------------------------------|
C|---4----4---4---4---7---7---7---7---9---9---9---9---10---10---10----12----12----12|
G|----------------------------------------------------------------------------------|
D|-2----2---2---2---5---5---5---5---7---7---7---7---8----8----8----10----10----10---|


 Chorus:

F|---------------------------------------------------------------------------|
C|---------------------------------------------------------------------------|
G|-----------------3-3-3-3----5-5-5-5------------3-3-3-3-3-------------------|
D|--0-0-0-0-10PBR-----------------------3-3-3-3--------------0-0-0-0-10PBR---|

F|---------------------------------------------------------------------------|
C|---------------------------------------------------------------------------|
G|-3-3-3-3----5-5-5-5-----------3-3-3-3--------------------------------------|
D|---------------------3-3-3-3-----------------------------------------------|


 Bridge:

F|------------------------------------------------------------------------------------------|
C|------------------------------------------------------------------------------------------|
G|--------------------------------------------------------7------7------5-7--------5h7--5h7-|
D|-2-2-2-2p0----2-2-2-2p0----2-2-2-2p0----2-2-2-2p0/5------0-0-0---0-0-0---0-0-0-0----------|

F|------------------------------------------------------------------------------------------|
C|------------------------------------------------------------------------------------------|
G|--------------------------------------------------------7------7------5-7--------5h7--5h7-|
D|-2-2-2-2p0----2-2-2-2p0----2-2-2-2p0----2-2-2-2p0/5------0-0-0---0-0-0---0-0-0-0----------|


F|---------------------------------------------------------------------------------------------|
C|---------------------------------------------------------------------------------------------|
G|--7------7------5-7--------5h7--5h7----------------------------------------------------------|
D|---0-0-0---0-0-0---0-0-0-0------------*0-0-0-0-0--0---0-0-0*---------------------------------|
*repeat this section 6 times. helps to listen to the song to understand the pattern


F|---------------------------------------------------------------------------|
C|---------------------------------------------------------------------------|
G|---------------------------------------------------------------------------|
D|0-0-0-0----0-0-0-0----0-0-0-0---0-0-0-0----/12---0-0-0-0-10PBR-X4----------|


 Pre-Chorus:

F|----------------------------------------------------------------------------------|
C|---4----4---4---4---7---7---7---7---9---9---9---9---10---10---10----12----12----12|
G|----------------------------------------------------------------------------------|
D|-2----2---2---2---5---5---5---5---7---7---7---7---8----8----8----10----10----10---|


 Chorus:

F|---------------------------------------------------------------------------|
C|---------------------------------------------------------------------------|
G|-----------------3-3-3-3----5-5-5-5------------3-3-3-3-3-------------------|
D|--0-0-0-0-10PBR-----------------------3-3-3-3--------------0-0-0-0-10PBR---|

F|---------------------------------------------------------------------------|
C|---------------------------------------------------------------------------|
G|-3-3-3-3----5-5-5-5-----------3-3-3-3--x4----------------------------------|
D|---------------------3-3-3-3-----------------------------------------------|


 Outro:

F|---------------------------------------------------------------------------|
C|---------------------------------------------------------------------------|
G|---------------------------------------------------------------------------|
D|--0-0-0-0--0-0-0-0---------------------------------------------------------|

Almost there ...

Sign in to get your own page with links to favourite songs and more. You are just one click away...

Login with Facebook Login with Google