Log in

One click and you are in

Login with Facebook Login with Google

Why sign up and log in

Guitar Tabs Explorer
Lord Huron guitar tabs for The night we met

Guitar tabs

  • Capo on 2nd
Chord Progression: Em,D,G,Em,G,C


Intro:
Ooooo oooo ooo
Ooooo oooo ooo
     A chord diagramE minorEm           A chord diagramD MajorD      A chord diagramG MajorG
e|-------3-----|------|------------|------------|
B|-----0---0---|----3-|------0-----|------0-----|
G|---0-------0-|--2---|----0---0---|----0---0---|
D|-2-----------|0-----|--0-------0-|--0-------0-|
A|-------------|------|------------|------------|
E|-------------|------|3-----------|3-----------|


     A chord diagramE minorEm           A chord diagramG MajorG      A chord diagramC majorC
e|-------------|------|------0-----|------0-----|
B|-------0-----|------|----1---1---|----1---1---|
G|-----0---0---|----0-|--0-------0-|--0-------0-|
D|---2-------2-|--0---|------------|------------|
A|-------------|------|3-----------|3-----------|
E|-0-----------|3-----|------------|------------|


Verse:
(I am not the only traveler)
e|-------3-----|------|------------|------------|
B|-----0---0---|----3-|------0-----|------0-----|
G|---0-------0-|--2---|----0---0---|----0---0---|
D|-2-----------|0-----|--0-------0-|--0-------0-|
A|-------------|------|------------|------------|
E|-------------|------|3-----------|3-----------|

(who has not repaid his debt)
e|-------------|------|------0-----|------0-----|
B|-------0-----|------|----1---1---|----1---1---|
G|-----0---0---|----0-|--0-------0-|--0-------0-|
D|---2-------2-|--0---|------------|------------|
A|-------------|------|3-----------|3-----------|
E|-0-----------|3-----|------------|------------|


(I’ve been searchin’ for a trail to follow again)
e|-------3-----|------|------------|------------|
B|-----0---0---|----3-|------0-----|------0-----|
G|---0-------0-|--2---|----0---0---|----0---0---|
D|-2-----------|0-----|--0-------0-|--0-------0-|
A|-------------|------|------------|------------|
E|-------------|------|3-----------|3-----------|


(Take me back to the night we met)
e|-------------|------|------0-----|------0-----|
B|-------0-----|------|----1---1---|----1---1---|
G|-----0---0---|----0-|--0-------0-|--0-------0-|
D|---2-------2-|--0---|------------|------------|
A|-------------|------|3-----------|3-----------|
E|-0-----------|3-----|------------|------------|


Verse:
(And then I can tell myself)
e|-------------|------|------0-----|------0-----|
B|-------0-----|------|----1---1---|----1---1---|
G|-----0---0---|----0-|--0-------0-|--0-------0-|
D|---2-------2-|--0---|------------|------------|
A|-------------|------|3-----------|3-----------|
E|-0-----------|3-----|------------|------------|


(What the hell I’m supposed to do)
e|-------------|------|------0-----|------0-----|
B|-------0-----|------|----1---1---|----1---1---|
G|-----0---0---|----0-|--0-------0-|--0-------0-|
D|---2-------2-|--0---|------------|------------|
A|-------------|------|3-----------|3-----------|
E|-0-----------|3-----|------------|------------|


(And then I can tell myself)
e|-------------|------|------0-----|------0-----|
B|-------0-----|------|----1---1---|----1---1---|
G|-----0---0---|----0-|--0-------0-|--0-------0-|
D|---2-------2-|--0---|------------|------------|
A|-------------|------|3-----------|3-----------|
E|-0-----------|3-----|------------|------------|


(Not to ride along with you)
e|-------------|------|------0-----|------0-----|
B|-------0-----|------|----1---1---|----1---1---|
G|-----0---0---|----0-|--0-------0-|--0-------0-|
D|---2-------2-|--0---|------------|------------|
A|-------------|------|3-----------|3-----------|
E|-0-----------|3-----|------------|------------|


CHORUS:(this part can also be played as chords)
(I had all and then most of you, some and now none of you)
e|-------------------------------------------|------------|------------|
B|-0-----------------------------------------|------0-----|------0-----|
G|-0-----------------------------------------|----0---0---|----0---0---|
D|-2-----------------------------------------|--0-------0-|--0-------0-|
A|-2-----------------------------------------|------------|------------|
E|-0-----------------------------------------|3-----------|3-----------|


(Take me back to the night we met)
e|-------------|------|------0-----|------0-----|
B|-------0-----|------|----1---1---|----1---1---|
G|-----0---0---|----0-|--0-------0-|--0-------0-|
D|---2-------2-|--0---|------------|------------|
A|-------------|------|3-----------|3-----------|
E|-0-----------|3-----|------------|------------|


(I don’t know what I’m supposed to do, haunted by the ghost of you)
e|-------3-----|------|------------|------------|
B|-----0---0---|----3-|------0-----|------0-----|
G|---0-------0-|--2---|----0---0---|----0---0---|
D|-2-----------|0-----|--0-------0-|--0-------0-|
A|-------------|------|------------|------------|
E|-------------|------|3-----------|3-----------|


(Oh take me back to the night we met)
e|-------------|------|------0-----|------0-----|
B|-------0-----|------|----1---1---|----1---1---|
G|-----0---0---|----0-|--0-------0-|--0-------0-|
D|---2-------2-|--0---|------------|------------|
A|-------------|------|3-----------|3-----------|
E|-0-----------|3-----|------------|------------|


Verse:
(When the night was full of terror)
e|-------------|------|------0-----|------0-----|
B|-------0-----|------|----1---1---|----1---1---|
G|-----0---0---|----0-|--0-------0-|--0-------0-|
D|---2-------2-|--0---|------------|------------|
A|-------------|------|3-----------|3-----------|
E|-0-----------|3-----|------------|------------|


(And your eyes were filled with tears)
e|-------------|------|------0-----|------0-----|
B|-------0-----|------|----1---1---|----1---1---|
G|-----0---0---|----0-|--0-------0-|--0-------0-|
D|---2-------2-|--0---|------------|------------|
A|-------------|------|3-----------|3-----------|
E|-0-----------|3-----|------------|------------|

(When you had not touched me yet)
e|-------------|------|------0-----|------0-----|
B|-------0-----|------|----1---1---|----1---1---|
G|-----0---0---|----0-|--0-------0-|--0-------0-|
D|---2-------2-|--0---|------------|------------|
A|-------------|------|3-----------|3-----------|
E|-0-----------|3-----|------------|------------|


(Oh take me back to the night we met)
e|-------------|------|------0-----|------0-----|
B|-------0-----|------|----1---1---|----1---1---|
G|-----0---0---|----0-|--0-------0-|--0-------0-|
D|---2-------2-|--0---|------------|------------|
A|-------------|------|3-----------|3-----------|
E|-0-----------|3-----|------------|------------|


Chorus:
(I had all and then most of you, some and now none of you)
e|--------------------------|-------------------------|
B|----------10--------------|-------------------------|
G|-------11----11--------11-|-------6-----------6-----|
D|----11---------11---11----|-----7---7-------7--7----|
A|--9-----------------------|---7-------7---7------7--|
E|------------------9-------|-5-----------5-----------|


(Take me back to the night we met)
e|-------------|------|------0-----|------0-----|
B|-------0-----|------|----1---1---|----1---1---|
G|-----0---0---|----0-|--0-------0-|--0-------0-|
D|---2-------2-|--0---|------------|------------|
A|-------------|------|3-----------|3-----------|
E|-0-----------|3-----|------------|------------|


(I don’t know what I’m supposed to do, haunted by the ghost of you)
e|-------3-----|------|------------|------------|
B|-----0---0---|----3-|------0-----|------0-----|
G|---0-------0-|--2---|----0---0---|----0---0---|
D|-2-----------|0-----|--0-------0-|--0-------0-|
A|-------------|------|------------|------------|
E|-------------|------|3-----------|3-----------|

(Take me back to the night we met)
e|-------------|------|------0-----|------0-----|
B|-------0-----|------|----1---1---|----1---1---|
G|-----0---0---|----0-|--0-------0-|--0-------0-|
D|---2-------2-|--0---|------------|------------|
A|-------------|------|3-----------|3-----------|
E|-0-----------|3-----|------------|------------|


Outro:
e|-------------|------|------0-----|------0-----|
B|-------0-----|------|----1---1---|----1---1---|
G|-----0---0---|----0-|--0-------0-|--0-------0-|
D|---2-------2-|--0---|------------|------------|
A|-------------|------|3-----------|3-----------|
E|-0-----------|3-----|------------|------------|


e|-------------|------|------0-----|------0-----|
B|-------0-----|------|----1---1---|----1---1---|
G|-----0---0---|----0-|--0-------0-|--0-------0-|
D|---2-------2-|--0---|------------|------------|
A|-------------|------|3-----------|3-----------|

Other versions of The Night We Met

The night we metChords
The night we met (Ver. 2)Chords
The night we met (Ver. 3)Chords
The night we met acousticChords
The night we met ukuleleChords
The night we met (Ver. 2)Tabs
The night we met acoustic - introTabs

↓ Add and view comments below ↓

What do you think about this song and these tabs?

Add your comments, questions, rant or a thumbs up below.

Almost there ...

Sign in to get your own page with links to favourite songs and more. You are just one click away...

Login with Facebook Login with Google