Log in

One click and you are in

Login with Facebook Login with Google

Why sign up and log in

Guitar Tabs Explorer
Loquillo Y Los Trogloditas bass tabs for Cadillac solitario

Cadillac Solitario bass tab - Loquillo Y Los Trogloditas

Loquillo Y Los Trogloditas bass tabs for Cadillac solitario

Bass tabs

  • Difficulty: Intermediate
Tuning: Standard (E A D G)



Verse:
                        (opcional)
                          G|----------------|
                          D|------------12\5|
                          A|----------------|
                          E|----------------|
  pero ya hace tiempo.../ quizas el martini
G|----------------|----------------|----------------|----------------|
D|----------------|----------------|----------------|----------------|
A|5---------------|----------------|2---------------|--------2---4---|
E|----------------|5---------------|----------------|3---------------|

G|----------------|----------------|----------------|----------------|
D|----------------|----------------|----------------|----------------|
A|5---------------|----------------|2---------------|--------5---4---|
E|----------------|5---------------|----------------|3---------------|


CHORUS: (2x)
     y ahora estoy... / y al irse la rubia...
G|----------------|----------------|----------------|----------------|
D|----------------|----------------|----------------|----------------|
A|2---2-----------|--------5---4---|2---2-----------|--------2---4---|
E|--------0-2---3-|----3-----------|--------0-2---3-|----3-----------|

G|----------------|----------------|----------------|----------------|
D|----------------|----------------|----------------|----------------|
A|5---5-----------|----------------|2---2-----------|----------------|
E|--------2-3---5-|--------3-5-----|--------0-2---3-|----------------|


Bridge:
  el amanecer... (3x)
G|----------------|----------------|----------------|----------------|
D|----------------|----------------|----------------|----------------|
A|5---------------|----------------|2---------------|--------2---4---|
E|----------------|5---------------|----------------|3---------------|

G|----------------|----------------|----------------|----------------|
D|----------------|----------------|----------------|------2---5---7-|
A|5---------------|----------------|2---------------|----0---3---5---|
E|----------------|5---------------|----------------|3---------------|


LAST CHORUS/OUTRO:
     El amanecer me sorprendera...             (repeat till the end)
G|----------------|------6---------|-------11-9-7---|----------------|
D|--------4-5-6-7-|--------7---5-7-|9---9---------5-|----4---2-------|
A|5---5-----------|----------------|----------------|------------5---|
E|----------------|----------------|----------------|----------------|


************************************

\  Slide down

Almost there ...

Sign in to get your own page with links to favourite songs and more. You are just one click away...

Login with Facebook Login with Google