Log in

One click and you are in

Login with Facebook Login with Google

Why sign up and log in

Guitar Tabs Explorer
Loona (이달의 소녀) bass tabs for Why not

Why Not bass tab by Loona (이달의 소녀)

Loona (이달의 소녀) bass tabs for Why not

Bass tabs

🎸 Intro: 0:00
G|-------------------------------------|
D|-------------------------------------| x2
A|-------------------------------------|
E|--5--5---/11\---5---/13--12--10------|

🎸 Verse 1: 0:07
G|-------------------------------------|
D|-------------------------------------| x4
A|-------------------------------------|
E|--5--5---/11\---5---/13--12--10------|


🎸 Pre-Chorus: 0:22
G|-----|-----|-----|-----|-----|-----|-----|-----|--------|
D|-----|-----|--0--|-----|-----|-----|--0--|-----|--------|
A|--0--|-----|-----|-----|--0--|-----|-----|-----|--------|
E|-----|--3--|-----|--1--|-----|--3--|-----|-----|--/10\--|


🎸 Chorus: 0:39
G|---------------|---------0-2--|---------------|-------------|
D|------------0--|--0--2-2------|------------0--|--0--2-2--0--| x2
A|--0---0-4-4----|--------------|--0---0-4-4----|-------------|
E|---------------|--------------|---------------|-------------|


🎸 Post-Chorus: 0:54
G|---------------|---------0-2--|---------------|-------------|
D|------------0--|--0--2-2------|------------0--|--0--2-2--0--| x2
A|--0---0-4-4----|--------------|--0---0-4-4----|-------------|
E|---------------|--------------|---------------|-------------|

🎸 Verse 2: 1:09
G|---------------|---------0-2--|---------------|-------------|
D|------------0--|--0--2-2------|------------0--|--0--2-2--0--|
A|--0---0-4-4----|--------------|--0---0-4-4----|-------------|
E|---------------|--------------|---------------|-------------|

G|--------------|-------|---------------|
D|--------------|-------|--7--7--6-6-5--|
A|--------------|-------|---------------|
E|-5--5--4-4-3--|--3-2--|--5--5--4-4-3--|


🎸 Verse 3: 1:24
G|---------------------------------|
D|--7--7---/13\-------/15--14--12--| x2
A|----------------0----------------|
E|---------------------------------|

G|---------------------------------|   (If you don't want to play
D|--7--7---/13\---7---/15--14--12--| x2 both octaves, play the
A|---------------------------------|   lower octave instead.)
E|--5--5---/11\---5---/13--12--10--|


🎸 Pre-Chorus: 1:39
G|-----|-----|-----|-----|-----|-----|-----|-----|--------|
D|-----|-----|--0--|-----|-----|-----|--0--|-----|--------|
A|--0--|-----|-----|-----|--0--|-----|-----|-----|--------|
E|-----|--3--|-----|--1--|-----|--3--|-----|-----|--/10\--|


🎸 Chorus: 1:56
G|---------------|---------0-2--|---------------|-------------|
D|------------0--|--0--2-2------|------------0--|--0--2-2--0--| x2
A|--0---0-4-4----|--------------|--0---0-4-4----|-------------|
E|---------------|--------------|---------------|-------------|


🎸 Post-Chorus: 2:11
G|---------------|---------0-2--|---------------|-------------|
D|------------0--|--0--2-2------|------------0--|--0--2-2--0--| x2
A|--0---0-4-4----|--------------|--0---0-4-4----|-------------|
E|---------------|--------------|---------------|-------------|


🎸 Bridge: 2:28
G|-----|-----|-----|-----|
D|-----|--0--|-----|-----| x2
A|--0--|-----|--2--|--3--|
E|-----|-----|-----|-----|


🎸 Chorus: Lets pump it up! 2:43
G|-------------|-----|-------------|-----|
D|-------------|-----|-------------|-----|
A|--0----0--0--|--0--|--0----0--0--|--0--| PLAY THIS
E|-------------|-----|-------------|-----| OR BELOW ONCE:

G|--------------------|------------12-14--|--------------------|------------12-14--|
D|----------11-11-12--|--12--14-14--------|----------11-11-12--|--12--14-14--------|
A|--12---12-----------|-------------------|--12---12-----------|-------------------|
E|--------------------|-------------------|--------------------|-------------------|

2:51
G|---------------|---------0-2--|---------------|-------------|
D|------------0--|--0--2-2------|------------0--|-------------|
A|--0---0-4-4----|--------------|--0---0-4-4----|-------------|
E|---------------|--------------|---------------|-------------|


🎸 Outro: 2:58
G|----------|-----|----------|-----|
D|----------|-----|--0--12\--|-----| x3
A|--0--12\--|-----|----------|--3--|
E|----------|--3--|----------|-----|


☠☠☠☠☠☠☠☠☠☠☠☠☠☠☠☠☠☠☠☠☠☠☠☠☠☠☠☠☠☠☠☠☠☠☠☠

| /  Slide up
| \  Slide down

☠☠☠☠☠☠☠☠☠☠☠☠☠☠☠☠☠☠☠☠☠☠☠☠☠☠☠☠☠☠☠☠☠☠☠☠

Almost there ...

Sign in to get your own page with links to favourite songs and more. You are just one click away...

Login with Facebook Login with Google