Log in

One click and you are in

Login with Facebook Login with Google

Why sign up and log in

Guitar Tabs Explorer
Loona guitar tabs for Eclipse

Guitar tabs

Tuning: Standard (E A D G B E)


Intro:

e|---------------------------------------------------------------------------------|
B|--0----------0------------------------0------------------------------------------|
G|--2--------0-----------0-----------0---------------------------------------------|
D|---------2-----------2----------2------------------------------------------------|
A|-------3-----------2---------0---------------------------------------------------|
E|--1--------------0---------------------------------------------------------------|


Verse 1:

e|----0---0-----0----0-------0---0------0--------------0---0------0-----0----------|
B|------3-----3----3-----------3------3-------1----------3------3-----3------------|
G|------------------------------------------0--------------------------------------|
D|---------------------------------------------------------------------------------|
A|-------------------------3-------------------------------------------------------|
E|-1-----------------------------------------------0-------------------------------|

e|------0---3--3-s-5-3----------5----0--0----0----------0--------------------------|
B|-1---1-----------------------0----------------3-p-1------------3-p-1-------------|
G|-2---------------------------------------------------------0----------2--2-------|
D|---------------------------------------------------------------------------------|
A|-0------------------------------------------------------3------------------------|
E|-------------------------1-------------------------------------------------------|

e|--------0------0-----0---3--3-s-5-s-3-3------------------------------------------|
B|-3-p-1---------0-----0-----------------------------3-s-5-s-5--1------------------|
G|----------------------------------------------0----------------------------------|
D|--------------------------------------------2------------------------------------|
A|------------------------------------------0--------------------------------------|
E|-----------0---------------------------------------------------------------------|

e|---------------1--0-----------0-------------0---0---3-s-5-s-3---3----------------|
B|---------------1--0-------1---1-----3---------3-----0-----------0----------------|
G|-------2----------------2-----------0---------------0-----------0-------0--------|
D|-----3----x-----------x----------------x------------x-----------------2----x-----|
A|----------x-----------x----------3-----x-3----------x----------------------x-----|
E|-1--------x--1--------x----------------x------------x---------------0------x-----|

e|-----------0---------------0-------------------------------1--0------------------|
B|---------------3--1--------1---3--3-----1------------------1--0------------------|
G|----0----------2--2-----2------2--2-----2----------2-----------------------------|
D|-------x------------x---------------x------------3----x-----------x--------------|
A|-------x-------0----x-0-------------x-0---------------x-----------x--------------|
E|-0-----x------------x---------------x----------1------x-1---------x--------------|

e|---------------------0---0----0---3-s-5-----------------0------------------------|
B|---1-------------------3---3--3---------------------------3------0-x-0-x-0-------|
G|-0---0-------0---------------------------------0------------0----0-x-0-x-0-------|
D|-----------2----x-------------x--------------0---x-----------------x---x---------|
A|---------3------x-3-----------x------------------x-------------0-----------------|
E|----------------x-------------x------------0-----x-0-----------------------------|



Chorus:

e|-------------------------0--------0----------------------------0-----------------|
B|--3-s-5-s-3-1-----1--1---1--------1--------1-----1---1---------1-----------------|
G|------------------2--2---2-----2--2-----2--0-----0---0-----0---0------2----------|
D|------------------3------x---3----3---x--------------x---2-----2----x------------|
A|-------------------------x------------x-------3------x-3------------x------------|
E|------------------1----1-x-1----------x--------------x--------------x------------|

e|---------------------------------------------------------------------------------|
B|--1---1----1------------1-----1-h-3---3----3-p-0---0--------3-s-5-s-3--1---------|
G|--0---0----0------0-----0-----0-------0----0----------0--------------------------|
D|--2--------2----2-------2-x-2----------------------------------------------------|
A|-----------x--------------x---------0---0--x-----0-------------------------------|
E|----0------x-0------------x----------------x-------------------------------------|

e|----------0---------0------------------------------------------------------------|
B|--1--1----1---------1------1---1---1---------1-----1-h-3---3---3-p-0----0--------|
G|--2--2----2-----2---2---2--0---0---0-----0---0-----0-------0---0-----------------|
D|--3-------x---3-----3-x------------x---2-------x-2-------------x-----------------|
A|----------x-----------x------3-----x-3---------x---------------x-----------------|
E|--1----1--x-1---------x------------x-----------x---------0---0-x-----0-----------|

e|--------------------------------------------------------------------(12)---------|
B|--------1---3--3-s-5--------------3-s-5------------1------1-----1---(12)---------|
G|--0---2-----------------------------------------2--2----2-2-----2---(12)---------|
D|---------------------x---2--p-0--------------3-----x------3-x--------------------|
A|------------0--------x-0----------5-s-7------------x--------x--------------------|
E|---------------------x---------------------1-------x-1------x-1------------------|

e|---------------------------------------------------------------------------------|
B|----------1------1----1---(12)-----------0------0---0---------------0----0-------|
G|--------0-0----0-0----0---(12)---------0-0----0-0---0----0-h-2--p-0-0----0-------|
D|-----2----2------x--------(12)------2----2--------x---x--------------x-----x-----|
A|--3-------x-3----x-3---------------------x--------x---x-------0------x-0---x-----|
E|----------x------x----------------0------x-0------x---x--------------x-----x-----|

e|-----------------------------------------(12)------------------------------------|
B|------3-s-5-------------1------1-----1---(12)----------1------1------1--(12)-----|
G|--0------------------2--2----2-2-----2---(12)--------0-0----0-0------0--(12)-----|
D|------------------3-----x------3-x---3------------2----2------2-x----2--(12)-----|
A|------5-s-5-------------x--------x-------------3-------x-3------x-3--------------|
E|---------------1--------x-1------x-1-------------------x--------x----------------|

e|---------------------------------------------------------------------------------|
B|----------0------0-----0----------------0------0---------------------------------|
G|--------0-0----0-0-----0----0-h-2---p-0-0------0---------------------------------|
D|-----2----2------2-x---2--x---------------x------x----0-h-2-p-0------------------|
A|----------x--------x------x-------0-------x-0----x---------------2-p-0-----------|
E|--0-------x-0------x-0----x---------------x------x-------------------------------|



Verse 2:
e|-----0---0------0----0-------0---0------0------------0---0------0-----0----------|
B|-------3-----------3-----------3------3------1---------3------3-----3------------|
G|--------------2----------------------------0-------------------------------------|
D|---------x-------------x---------x-------------x---------x--------x--------------|
A|---------x-------------x---3-----x--3----------x---------x--------x--------------|
E|--1------x-1-----------x---------x-------------x--0------x-0------x--------------|

e|-----------0--3--3-s-5-3-------5-----0--0----0----------0------------------------|
B|--1-------1-------------------0------------------3-p-1----------3-p-1------------|
G|--2----------------------------------------------------------0--------2--2-------|
D|------x--------------x----------x--------------x----------------x----------------|
A|--0---x-0------------x----------x--------------x----------3-----x----------------|
E|------x--------------x-----1----x-1------------x----------------x----------------|

e|---------0----0-----0---3---3-s-5-s-3-3------------------------------------------|
B|--3-p-1-------0-----0--------------------------1------1----3-s-5-s-3--1----------|
G|---------------------------------------------2------2----------------------------|
D|--x-------------x---------------x---------------x------x-------------------------|
A|--x-------------x---------------x----------0----x-0----x-------------------------|
E|--x--------0----x-0-------------x---------------x------x-------------------------|

e|-----------------1--0------------0------------0---0---3-s-5-s-3--3---------------|
B|-----------------1--0--------1---1-----3--------3-----0----------0---------------|
G|---------2----------------2------------0--------------0----------0---------0-----|
D|------3----x-----------x------------------x-----------x-----------------2-----x--|
A|-----------x-----------x------------3-----x-3---------x-----------------------x--|
E|--1--------x--1--------x------------------x-----------x--------------0--------x--|

e|-----------0-----------------0---------------------------------1---0-------------|
B|---------------3--1----------1---3---3-----1-------------------1---0-------------|
G|----0----------2--2------2-------2---2-----2-----------2-------------------------|
D|-------x------------x------------------x------------3-----x------------x---------|
A|-------x-------0----x-0----------------x-0----------------x------------x---------|
E|-0-----x------------x------------------x---------1--------x-1----------x---------|

e|----------------------0---0-----0---3-s-5-------------0----------(12)-------(12)-|
B|---1--------------------3----3--3------------------------3-------(12)-------(12)-|
G|-2---0--------0---------------------------------0-----------0----(12)-(12)--(12)-|
D|-----------2-----x--------------x------------0----x-------------------(12)-------|
A|--------3--------x-3------------x-----------------x------------------------x-----|
E|-----------------x--------------x----------0------x-0----------5-----5-----x-----|



Chorus:

e|------------------------0----------0-------------------------------0-------------|
B|-3-s-5-s-3-1---1---1----1----------1--------1------1---1-----------1-------------|
G|---------------2---2----2-------2--2----2---0------0---0-------0---0----2--------|
D|---------------3--------x----3-----3--x----------------x----2------2--x----------|
A|------------------------x-------------x--------3-------x-3------------x----------|
E|---------------1------1-x-1-----------x----------------x--------------x----------|

e|---------------------------------------------------------------------------------|
B|-1----1----1------------1------1-h-3----3----3-p-0-----0--------3-s-5-s-3--1-----|
G|-0----0----0-------0----0------0--------0----0------------0----------------------|
D|-2---------2----2-------2-x-2----------------------------------------------------|
A|-----------x--------------x-----------0---0--x------0----------------------------|
E|----0------x-0------------x------------------x-----------------------------------|

e|-----------0----------0----------------------------------------------------------|
B|-1---1-----1----------1-------1---1---1----------1-----1-h-3----3---3-p-0---0----|
G|-2---2-----2------2---2---2---0---0---0-------0--0-----0--------0---0----------0-|
D|-3---------x---3------3-x-------------x----2-------x-2--------------x------------|
A|-----------x------------x-------3-----x-3----------x----------------x------------|
E|-1-----1---x-1----------x-------------x------------x----------0---0-x-----0------|

e|----------------------------------------------------------------------(12)-------|
B|----1---3--3-s-5-----------------3-s-5-------------1-------1------1---(12)-------|
G|--2---------------------------------------------2--2----2--2------2---(12)-------|
D|-----------------x----2---p-0----------------3-----x-------3-x-------------------|
A|--------0--------x-0-------------5-s-7-------------x---------x-------------------|
E|-----------------x-------------------------1-------x-1-------x-1-----------------|

e|---------------------------------------------------------------------------------|
B|----------1------1-----1---(12)-----------0------0---0----------------0----0-----|
G|--------0-0----0-0-----0---(12)---------0-0----0-0---0----0-h-2---p-0-0----0-----|
D|-----2----2------x---------(12)------2----2--------x---x---------------x-----x---|
A|--3-------x-3----x-3----------------------x--------x---x--------0------x-0---x---|
E|----------x------x----------------0-------x-0------x---x---------------x-----x---|

e|---------------------------------------------------------------------------------|
B|----3-s-5----------1------1-------------------------------1------1---------------|
G|--0--------------2-2----2-2-----------------------------0-0----0-0---------------|
D|---------------3---x------3-x-5-h-7-p-5--------------2----x------2-x-------------|
A|----5-s-5----------x--------x------------7-p-5----3-------x-3------x-------------|
E|------------1------x-1------x-----------------------------x--------x-------------|

e|------------------------------------------------------------3-p-1-p-0------------|
B|--------------------------0-------0------0--------------0-------------3-p-1-p-0--|
G|------------------------0-0----0--0------0---0-h-2--p-0-0------------------------|
D|--2-h-3-p-2-p-0------2----x-------2-x----2-x--------------x----------------------|
A|----------------3-2-------x---------x------x-------0------x----------------------|
E|------------------0-------x-0-------x-0----x--------------x----------------------|

e|------------------------------------------------(12)-----------------------------|
B|----------------------------1------1------------(12)------------1------1---------|
G|--2-p-0-------------------2-2----2-2------------(12)----------0-0----0-0---------|
D|--------3-p-2-p-0-------3---x------3-x---------------------2----x------2-x-------|
A|----------------------------x--------x------------------3-------x-3------x-------|
E|---------------------1------x-1------x-(12)-h-1-----------------x--------x-------|

e|---------------------------------------------------------------------------------|
B|---------(12)-------------0------0---0-----------------0----0--------------------|
G|---------(12)-----------0-0----0-0---0-----0-h-2---p-0-0----0--------------------|
D|---------(12)--------2----2--------x---x----------------x-----x------------------|
A|--------------------------x--------x---x---------0------x-0---x------------------|
E|-(12)-h-8---------0-------x-0------x---x----------------x-----x------------------|

e|-----------------------------------------(12)------------------------------------|
B|-------3-s-5------------1------1------1--(12)-----------1------1-----1--(12)-----|
G|---0-----------------2--2----2-2------2--(12)---------0-0----0-0-----0--(12)-----|
D|------------------3-----x------3-x----3------------2----2------2-x---2--(12)-----|
A|-------5-s-5------------x--------x--------------3-------x-3------x-3-------------|
E|---------------1--------x-1------x-1--------------------x--------x---------------|

e|---------------------------------------------------------------------------------|
B|----------0-------0------0-------------------0-----0----------3-s-5--------------|
G|--------0-0----0--0------0-----0-h-2-----p-0-0-----0------0----------------------|
D|-----2----2-------2-x----2--x------------------x------x--------------------------|
A|----------x---------x-------x---------0--------x-0----x-------5-s-7--------------|
E|--0-------x-0-------x-0-----x------------------x------x--------------------------|



************************************
x  - dead note
h  - hammer on
p  - pull off
s  - legato slide
************************************

Other versions of Eclipse

EclipseChords

Almost there ...

Sign in to get your own page with links to favourite songs and more. You are just one click away...

Login with Facebook Login with Google