Log in

One click and you are in

Login with Facebook Login with Google

Why sign up and log in

Guitar Tabs Explorer
Loona (이달의 소녀) bass tabs for Be honest

Be Honest bass tab by Loona (이달의 소녀)

Loona (이달의 소녀) bass tabs for Be honest

Bass tabs

Intro+Verse:
G|-------------------------------------|
D|-------------------------------------| Fill 1: then repeat
A|----------------------0-0--2-2-------| Second time through, skip fill and rest.
E|--0-0--0-0--0-0--0-0------------0-0--|

Fill 1:
G|-----------|
D|-0-0--0--2-|
A|-----------|
E|-----------|


Pre-Chorus:
G|---------------------0-2--------------------------|
D|----2-0-2-----2-0-2----------2-0-2----2-0-2--0-2--|
A|---------------------------0--------0-------------|
E|--0---------0-------------------------------------|

G|---------------------0-2--|
D|----2-0-2---0-2-0-2-------|
A|--3-----------------------|
E|--------------------------|


Chorus: + Post-Chorus:
G|-----------------------------------------------------|
D|----5-3-5-----5-3-5--3-5------5-3-5------5-3-5--3-5--|
A|---------------------------3----------3--------------|
E|--3---------3----------------------------------------|

G|-------------------------------------|
D|----5-3-5-----5-3-5--3-5------5-3-5--| Fill 2: then repeat
A|------------3------------------------| Second time through, skip fill and rest.
E|--3------------------------3---------|

Fill 2:
G|-----------------|
D|--5-3-0-3-0-3-5--|
A|-----------------|
E|-----------------|


Verse:
G|-------------------------------------|
D|-------------------------------------| Fill 1: then repeat
A|----------------------0-0--2-2-------| Second time through, skip fill and rest.
E|--0-0--0-0--0-0--0-0------------0-0--|

Fill 1:
G|-----------|
D|-0-0--0--2-|
A|-----------|
E|-----------|


Bridge:
G|-------------------------------------------------|
G|------0-------------0----------------------------|
A|--3-------------3--------------------------------|
E|----------0-------------0--0--0-0-0--0-0--0-0-0--|


Chorus: + Post-Chorus:
G|-----------------------------------------------------|
D|----5-3-5-----5-3-5--3-5------5-3-5------5-3-5--3-5--|
A|---------------------------3----------3--------------|
E|--3---------3----------------------------------------|

G|-------------------------------------|
D|----5-3-5-----5-3-5--3-5------5-3-5--| Fill 2: then repeat
A|------------3------------------------| Second time through, skip fill and rest.
E|--3------------------------3---------|

Fill 2:
G|-----------------|
D|--5-3-0-3-0-3-5--|
A|-----------------|
E|-----------------|

Almost there ...

Sign in to get your own page with links to favourite songs and more. You are just one click away...

Login with Facebook Login with Google