Log in

One click and you are in

Login with Facebook Login with Google

Why sign up and log in

Guitar Tabs Explorer
The Lonely Island chords for Sick glenda ukulele

Sick Glenda Ukulele chords by The Lonely Island

The Lonely Island chords for Sick glenda ukulele

Guitar chords

Tuning: G C E A (G C E A)


Intro:

A|-3-3-3-2-0-1--2--2-3-|
E|-0-------1--1-3-3--0-|
C|-0-------0----2----0-|
G|-0-------2---------0-|


Verse 1:

A|-3-3-3-2-0-1--2--2-3-|
E|-0-------1--1-3-3--0-|  X4
C|-0-------0----2----0-|
G|-0-------2---------0-|


Verse 2:

A|-3-3-3-2-0-1--2--2-3-|
E|-0-------1--1-3-3--0-|  X4
C|-0-------0----2----0-|
G|-0-------2---------0-|


Outro:

A|-3-3-3-2-0-1--2--2-3-|
E|-0-------1--1-3-3--0-|
C|-0-------0----2----0-|
G|-0-------2---------0-|

ⓘ Guitar chords for 'Sick Glenda Ukulele' by The Lonely Island, a comedy band formed in 2001 from Berkeley, California, USA

Almost there ...

Sign in to get your own page with links to favourite songs and more. You are just one click away...

Login with Facebook Login with Google