Log in

One click and you are in

Login with Facebook Login with Google

Why sign up and log in

Guitar Tabs Explorer
The Lonely Island bass tabs for I just had sex

I Just Had Sex bass tab by The Lonely Island

The Lonely Island bass tabs for I just had sex

Bass tabs

-------------------------------------------------------------------------------
			   SONG NAME - Band Name
-------------------------------------------------------------------------------

Tabbed By : Jeff
e-mail: jeff.diienno@gmail.com

Tuning: standard

Pretty simple song...

G|--------------------------------------------------|
D|--------------------------------------------------|
A|--6--6--6--------------------1--2--4--4--4--4--4--|
E|-----------7--7--7--7--7--2-----------------------|

just play this song the whole time... the C# is sometimes cut short so listen for that

at the end of the song when it changes key, you move everything a half-step up like this:

G|--------------------------------------------------|
D|--------------------------------------------------|
A|--7--7--7--------------------2--3--5--5--5--5--5--|
E|-----------8--8--8--8--8--3-----------------------|

Play that to the end

...this one's dedicated to the girls that let us flop around on top of them... :)

| / slide up
| \ slide down
| h hammer-on
| p pull-off
| ~ vibrato
| + harmonic
| x Mute note

ⓘ Bass guitar tab for 'I Just Had Sex' by The Lonely Island, a comedy band formed in 2001 from Berkeley, California, USA

Almost there ...

Sign in to get your own page with links to favourite songs and more. You are just one click away...

Login with Facebook Login with Google