Log in

One click and you are in

Login with Facebook Login with Google

Why sign up and log in

Guitar Tabs Explorer
Lomepal bass tabs for Club

Bass tabs

G:-------------------------7-7-4-4---------------------------------
D:-5-5-5-5-5-5-5-5-5-5-5-5---------5-5-5-5-5-5-5-5-5-5-5-5-7-7-9-9-
A:-----------------------------------------------------------------
E:-----------------------------------------------------------------

G:-----------------------------------------------------------------
D:-------------------------9-9-7-7---------------------------------
A:-7-7-7-7-7-7-7-7-7-7-7-7---------7-7-7-7-7-7-7-7-7-7-7-7-5-5-5-5-
E:-----------------------------------------------------------------

G:-------------------------7-7-4-4---------------------------------
D:-5-5-5-5-5-5-5-5-5-5-5-5---------5-5-5-5-5-5-5-5-5-5-5-5-7-7-9-9-
A:-----------------------------------------------------------------
E:-----------------------------------------------------------------

G:-----------------------------------------------------------------
D:-------------------------9-9-7-7---------------------------------
A:-7-7-7-7-7-7-7-7-7-7-7-7---------7-7-7-7-7-7-7-7-7-7-7-7-5-5-5-5-
E:-----------------------------------------------------------------

G:-----------------------------------------------------------------
D:-5-5-5-5-5-5-5-5-5-5-5-5-5-5-5-5-5-5-5-5-5-5-5-5-5-5-5-5-7-7-7-7-
A:-----------------------------------------------------------------
E:-----------------------------------------------------------------

G:-----------------------------------------------------------------
D:-----------------------------------------------------------------
A:-7-7-7-7-7-7-7-7-7-7-7-7-7-7-7-7-7-7-7-7-7-7-7-7-7-7-7-7-5-5-5-5-
E:-----------------------------------------------------------------

G:-----------------------------------------------------------------
D:-----------------------------------------------------------------
A:5--5----5--5----7--7----7---7---5--5----5--5----7--7----7--------
E:-----------------------------------------------------------------

G:-------------------------7-7-4-4---------------------------------
D:-5-5-5-5-5-5-5-5-5-5-5-5---------5-5-5-5-5-5-5-5-5-5-5-5-7-7-9-9-
A:-----------------------------------------------------------------
E:-----------------------------------------------------------------

G:-----------------------------------------------------------------
D:-------------------------9-9-7-7---------------------------------
A:-7-7-7-7-7-7-7-7-7-7-7-7---------7-7-7-7-7-7-7-7-7-7-7-7-5-5-5-5-
E:-----------------------------------------------------------------

G:-------------------------7-7-4-4---------------------------------
D:-5-5-5-5-5-5-5-5-5-5-5-5---------5-5-5-5-5-5-5-5-5-5-5-5-7-7-9-9-
A:-----------------------------------------------------------------
E:-----------------------------------------------------------------

G:-----------------------------------------------------------------
D:-------------------------9-9-7-7---------------------------------
A:-7-7-7-7-7-7-7-7-7-7-7-7---------7-7-7-7-7-7-7-7-7-7-7-7-5-5-5-5-
E:-----------------------------------------------------------------

G:-------------------------7-7-4-4---------------------------------
D:-5-5-5-5-5-5-5-5-5-5-5-5---------5-5-5-5-5-5-5-5-5-5-5-5-7-7-9-9-
A:-----------------------------------------------------------------
E:-----------------------------------------------------------------

G:-----------------------------------------------------------------
D:-------------------------9-9-7-7---------------------------------
A:-7-7-7-7-7-7-7-7-7-7-7-7---------7-7-7-7-7-7-7-7-7-7-7-7-5-5-5-5-
E:-----------------------------------------------------------------

G:-------------------------7-7-4-4---------------------------------
D:-5-5-5-5-5-5-5-5-5-5-5-5---------5-5-5-5-5-5-5-5-5-5-5-5-7-7-9-9-
A:-----------------------------------------------------------------
E:-----------------------------------------------------------------

G:-----------------------------------------------------------------
D:-------------------------9-9-7-7---------------------------------
A:-7-7-7-7-7-7-7-7-7-7-7-7---------7-7-7-7-7-7-7-7-7-7-7-7-5-5-5-5-
E:-----------------------------------------------------------------

G:-----------------------------------------------------------------
D:-----------------------------------------------------------------
A:-----------------------------------------------------------------
E:3---------------0------------------------------------------------

G:-----------------------------------------------------------------
D:5-5-5-5----7-5-5-5-5-55-77---------------------------------------
A:---------------------------7-7----7-7----7-7----7-7-5------------
E:-----------------------------------------------------------------

G:-------------------------7-7-4-4---------------------------------
D:-5-5-5-5-5-5-5-5-5-5-5-5---------5-5-5-5-5-5-5-5-5-5-5-5-7-7-9-9-
A:-----------------------------------------------------------------
E:-----------------------------------------------------------------

G:-----------------------------------------------------------------
D:-------------------------9-9-7-7---------------------------------
A:-7-7-7-7-7-7-7-7-7-7-7-7---------7-7-7-7-7-7-7-7-7-7-7-7-5-5-5-5-
E:-----------------------------------------------------------------

G:-----9-----12----9-----12----------------------------------------
D:-----------------------------------------------------------------
A:7----------------------------------------------------------------
E:-----10----12----10----12----------------------------------------

G:-------------------------7-7-4-4---------------------------------
D:-5-5-5-5-5-5-5-5-5-5-5-5---------5-5-5-5-5-5-5-5-5-5-5-5-7-7-9-9-
A:-----------------------------------------------------------------
E:-----------------------------------------------------------------

G:-----------------------------------------------------------------
D:-------------------------9-9-7-7---------------------------------
A:-7-7-7-7-7-7-7-7-7-7-7-7---------7-7-7-7-7-7-7-7-7-7-7-7-5-5-5-5-
E:-----------------------------------------------------------------

G:-------------------------7-7-4-4---------------------------------
D:-5-5-5-5-5-5-5-5-5-5-5-5---------5-5-5-5-5-5-5-5-5-5-5-5-7-7-9-9-
A:-----------------------------------------------------------------
E:-----------------------------------------------------------------

G:-----------------------------------------------------------------
D:-------------------------9-9-7-7---------------------------------
A:-7-7-7-7-7-7-7-7-7-7-7-7---------7-7-7-7-7-7-7-7-7-7-7-7-7-------
E:-----------------------------------------------------------------

G:-------------------------7-7-4-4---------------------------------
D:-5-5-5-5-5-5-5-5-5-5-5-5---------5-5-5-5-5-5-5-5-5-5-5-5-7-7-9-9-
A:-----------------------------------------------------------------
E:-----------------------------------------------------------------

G:-----------------------------------------------------------------
D:-------------------------9-9-7-7---------------------------------
A:-7-7-7-7-7-7-7-7-7-7-7-7---------7-7-7-7-7-7-7-7-7-7-7-7-5-5-5-5-
E:-----------------------------------------------------------------

G:-------------------------7-7-4-4---------------------------------
D:-5-5-5-5-5-5-5-5-5-5-5-5---------5-5-5-5-5-5-5-5-5-5-5-5-7-7-9-9-
A:-----------------------------------------------------------------
E:-----------------------------------------------------------------

G:-----------------------------------------------------------------
D:-------------------------9-9-7-7---------------------------------
A:-7-7-7-7-7-7-7-7-7-7-7-7---------7-7-7-7-7-7-7-7-7-7-7-7-5-5-5-5-
E:-----------------------------------------------------------------

G:-------------------------7-7-4-4---------------------------------
D:-5-5-5-5-5-5-5-5-5-5-5-5---------5-5-5-5-5-5-5-5-5-5-5-5-7-7-9-9-
A:-----------------------------------------------------------------
E:-----------------------------------------------------------------

G:-----------------------------------------------------------------
D:-------------------------9-9-7-7---------------------------------
A:-7-7-7-7-7-7-7-7-7-7-7-7---------7-7-7-7-7-7-7-7-7-7-7-7-5-5-5-5-
E:-----------------------------------------------------------------

G:-------------------------7-7-4-4---------------------------------
D:-5-5-5-5-5-5-5-5-5-5-5-5---------5-5-5-5-5-5-5-5-5-5-5-5-7-7-9-9-
A:-----------------------------------------------------------------
E:-----------------------------------------------------------------

G:--------------------------------------------------------------------
D:-------------------------9-9-7-7------------------------------------
A:-7-7-7-7-7-7-7-7-7-7-7-7---------7-7-7-7-7-7-7-7-7-7-7-7-5-5-5-5----
E:------------------------------------------------------------------3-

Almost there ...

Sign in to get your own page with links to favourite songs and more. You are just one click away...

Login with Facebook Login with Google