Guitar Tabs Explorer
Live bass tabs for Hold me up

Hold Me Up bass tab


Be the first to rate


CaughtinthestormAuthor: Caughtinthestorm

Hold Me Up bass tab by Live

This is a recording that remains unreleased by the band. Really great song!!!

Bass tabs

Print
  • Tuning: Standard tuning
  • Difficulty: Novice
Verse
G--------------------------------------------------------------
D--------------------------------------------------------------
A--------------------------------------------------------------
E--[4--6---6--11---6--4----4]-(x3)----4---6----6--11---6--4----


Chorus
(x2)
G----------------------------------------------
D----------------------------------------------
A----------------------------------------------
E--4-(x8)--6-(x8)---11-(x4)--6-(x4)--4-(x8)----

(x1)
G--------------
D--------------
A--------------
E---4-(x16)----


Verse 2
G----------------------------------------------------------
D----------------------------------------------------------
A----------------------------------------------------------
E--4--6---6--11---6--4----4-------4---6----6--11---6--4----


*Repeat Chorus


Bridge
G-----------------------------------------------------------------
D-----------------------------------------------------------------
A--3-(x16)--4-(x8)--6-(x8)----3-(x16)--4-(x8)---------------------
E-----------------------------------------------[6-6-4-6]-(x4)----


Solo
G--------------------------------------------
D--------------------------------------------
A----------------------------------8-(x8)----
E---1-(x40)---1-(x4)----1-(x40)--------------


*Repeat Chorus


End On
G---------
D---------
A---6~----
E---------

Comment this song and these bass tabs

Do you have corrections, comments on the bass tabs, thoughts about the song or a message to the author? Write them below.