Log in

One click and you are in

Login with Facebook Login with Google

Why sign up and log in

Guitar Tabs Explorer
Little Mix guitar tabs for Secret love song (Ver. 3)

Guitar tabs

No Capo!

Good Luck!!

e---------------------------|
B---10-12-12s14-14-14-14-14-|
G--9------------------------|
D---------------------------|
A---------------------------|
E---------------------------|

e---------9-----------------|
B---10-12---12-9-9-9-9h10---|
G--9------------------------|
D---------------------------|
A---------------------------|
E---------------------------|

e--------------12-----------|
B-10-12-9-9-10----10-10-----|
G---------------------------|
D---------------------------|
A---------------------------|
E---------------------------|

e----------12---------------|
B-------10----10-10---------|
G--9-11---------------------|
D---------------------------|
A---------------------------|
E---------------------------|

e----9h10-9-----------------|
B-10--------12-10s12--------|
G---------------------------|
D---------------------------|
A---------------------------|
E---------------------------|


************************************

| h  Hammer-on
| s  Slide

************************************

Other versions of Secret Love Song

Secret love songChords
Secret love song (Ver. 2)Chords
Secret love song (Ver. 3)Chords
Secret love song part 2Chords
Secret love song ukuleleChords
Secret love songTabs
Secret love song (Ver. 2)Tabs
Secret love song (Ver. 4)Tabs
Secret love song - soloTabs
Secret love song acousticTabs

Almost there ...

Sign in to get your own page with links to favourite songs and more. You are just one click away...

Login with Facebook Login with Google