Log in

One click and you are in

Login with Facebook Login with Google

Why sign up and log in

Guitar Tabs Explorer
Little Mix guitar tabs for Secret love song (Ver. 2)

Guitar tabs

e----0----5----7---9----9--9--9-----9---|
?---------------------------------------|
G---------------------------------------|
D---------------------------------------|
A---------------------------------------|
E---------------------------------------|
    Why can’t you hold me in the street,

e----0----5---7--9----7---5--4----4-----5|
?----------------------------------------|
G----------------------------------------|
D----------------------------------------|
A----------------------------------------|
E----------------------------------------|
    why can’t I kiss you on the dance floor

e---7--5----4---5---4----12—--5—--5---|
?-------------------------------------|
G-------------------------------------|
D-------------------------------------|
A-------------------------------------|
E-------------------------------------|
    I wish that it could be like that,

e----0---2----5--12--5-----5-----9----10---9---7-5-7|
?---------------------------------------------------|
G---------------------------------------------------|
D---------------------------------------------------|
A---------------------------------------------------|
E---------------------------------------------------|
    why can’t it be like that? Cause I’m yours


e----0----5----7---9----9---9---10---9--|
?---------------------------------------|
G---------------------------------------|
D---------------------------------------|
A---------------------------------------|
E---------------------------------------|
    Why can't  I  say that I'm  in love

e----0---5-----7---9----7---5---4--4--5--|
?----------------------------------------|
G----------------------------------------|
D----------------------------------------|
A----------------------------------------|
E----------------------------------------|
    I  wanna shout it from the rooftops


e---7--5----4---5---4----12—--5—--5---|
?-------------------------------------|
G-------------------------------------|
D-------------------------------------|
A-------------------------------------|
E-------------------------------------|
    I wish that it could be like that,


e----0---2----5--12--5-----5-----9----10---9---7-5-7|
?---------------------------------------------------|
G---------------------------------------------------|
D---------------------------------------------------|
A---------------------------------------------------|
E---------------------------------------------------|
    why can’t it be like that? Cause I’m yours

Other versions of Secret Love Song

Secret love songChords
Secret love song (Ver. 2)Chords
Secret love song (Ver. 3)Chords
Secret love song part 2Chords
Secret love song ukuleleChords
Secret love songTabs
Secret love song (Ver. 3)Tabs
Secret love song (Ver. 4)Tabs
Secret love song - soloTabs
Secret love song acousticTabs

Almost there ...

Sign in to get your own page with links to favourite songs and more. You are just one click away...

Login with Facebook Login with Google