Log in

One click and you are in

Login with Facebook Login with Google

Why sign up and log in

Guitar Tabs Explorer
Lisa guitar tabs for Gurenge

Guitar tabs

Tuning: Drop A chord diagramC majorC (A chord diagramC majorC A chord diagramG MajorG A chord diagramC majorC A chord diagramFF A chord diagramA majorA A chord diagramD MajorD)

Key: A chord diagramC majorC

Difficulty: Intermediate

Intro:

D|---------------------------------------------------------------------------|
A|---------------------------------------------------------------------------|
F|---------------------------------------------------------------------------|
C|-4-2-4-2-x-x-x-x-4-2-4-2-x-x-x-x-4-2-4-2-x-x-x-x-4-2-4-2-x-x-x-x-----------|
G|-4-2-4-2-x-x-x-x-4-2-4-2-x-x-x-x-4-2-4-2-x-x-x-x-4-2-4-2-x-x-x-x-----------|
C|-4-2-4-2-x-x-x-x-4-2-4-2-x-x-x-x-4-2-4-2-x-x-x-x-4-2-4-2-x-x-x-x-----------|




Verse 1: (No guitar in verse besides one note at 0:46)

D|---------------------------------------------------------------------------|
A|---------------------------------------------------------------------------|
F|---------------------------------------------------------------------------|
C|-------6b------------------------------------------------------------------|
G|---------------------------------------------------------------------------|
C|---------------------------------------------------------------------------|


Pre-Chorus:

D|--14---12------------------------------------------------------------------|
A|-------------14p12h12------------------------------------------------------|
F|----------------------11---------------------------------------------------|
C|---------------------------------------------------------------------------|
G|---------------------------------------------------------------------------|
C|---------------------------------------------------------------------------|

D|---------------------------------------------------------------------------|
A|---------------------------------------------------------------------------|
F|---------------------------------------------------------------------------|
C|-0--0--0--0--2--2--2--2--4-4-4-6h7-6---------------------------------------|
G|-0--0--0--0--2--2--2--2--4-4-4-------7-------------------------------------|
C|-0--0--0--0--2--2--2--2--4-4-4---------------------------------------------|

Chorus:

D|-0--0--5-----0--------------------------------------0--0-----5--0---------|
A|-3--5--7--9--3--------------------------------------3--5-----7--3---------|
F|-2--4--6--9--2---------------------6-4-6-4-x-x-x-x--2--4-----6--2---------|
C|-0--2--4--7--0--3--4-2-4-2-x-x-x-x-6-4-6-4-x-x-x-x--0--2--3--4--0----2-2--|
G|-0--2--4--7--0--4--4-2-4-2-x-x-x-x-4-2-4-2-x-x-x-x--0--2--4--4--0----2-2--|
C|-0--2--4-----0--3--4-2-4-2-x-x-x-x------------------0--2--3--4--0----2-2--|
                                                                       . .

Intro:

D|---------------------------------------------------------------------------|
A|---------------------------------------------------------------------------|
F|---------------------------------------------------------------------------|
C|-4-2-4-2-x-x-x-x-4-2-4-2-x-x-x-x-4-2-4-2-x-x-x-x-4-2-4-2-x-x-x-x-----------|
G|-4-2-4-2-x-x-x-x-4-2-4-2-x-x-x-x-4-2-4-2-x-x-x-x-4-2-4-2-x-x-x-x-----------|
C|-4-2-4-2-x-x-x-x-4-2-4-2-x-x-x-x-4-2-4-2-x-x-x-x-4-2-4-2-x-x-x-x-----------|


Verse 2:

D|--4--------------4-------------4-------------------------------------------|
A|----2--------------2-------------2-----------------------------------------|
F|------2--------------2-------------4---------------------------------------|
C|-----------------------------------------------------------------2-2-2-2---|
G|-----------------------------------------------------------------2-2-2-2---|
C|-----------------------------------------------------------------2-2-2-2---|
                                                                   . . . .
D|---------------------------------------------------------------------------|
A|-------------------10-10-10-10----------10-10-10-10----------10-10-10-10---|
F|----9b-----9--9--9-9--9--9--9---9--9--9-9--9--9--9--6--6--6--9--9--9--9----|
C|-----------x--x--x--------------x--x--x-------------x--x--x----------------|
G|-----------7--7--7--------------7--7--7-------------4--4--4----------------|
C|---------------------------------------------------------------------------|


D|---------------------------------------------------------------------------|
A|---------10-10-10-10----------10-10-10-10----------10-10-10-10-------------|
F|-9--9--9-9--9--9--9---9--9--9-9--9--9--9--9--9--9--9--9--9--9--6-----------|
C|-x--x--x--------------x--x--x-------------x--x--x--------------x-------2-2-|
G|-7--7--7--------------7--7--7-------------7--7--7--------------4-------2-2-|
C|-----------------------------------------------------------------------2-2-|
                                                                         . .


Chorus:

D|-0--0--5-----0--------------------------------------0--0-----5--0---------|
A|-3--5--7--9--3--------------------------------------3--5-----7--3---------|
F|-2--4--6--9--2---------------------6-4-6-4-x-x-x-x--2--4-----6--2---------|
C|-0--2--4--7--0--3--4-2-4-2-x-x-x-x-6-4-6-4-x-x-x-x--0--2--3--4--0----2-2--|
G|-0--2--4--7--0--4--4-2-4-2-x-x-x-x-4-2-4-2-x-x-x-x--0--2--4--4--0----2-2--|
C|-0--2--4-----0--3--4-2-4-2-x-x-x-x------------------0--2--3--4--0----2-2--|
                                                                       . .


Bridge:

D|--14---12------------------------------------------------------------------|
A|-------------14p12h12-------(x5)-------------------------------------------|
F|-----------------------11--------------------------------------------------|
C|---------------------------------------------------------------------------|
G|---------------------------------------------------------------------------|
C|---------------------------------------------------------------------------|

D|---------------------------------------------------------------------------|
A|---------------------------------------------------------------------------|
F|---------------------------------------------------------------------------|
C|-0--0--0--0--2--2--2--2--4-4-4-6h7-6---------------------------------------|
G|-0--0--0--0--2--2--2--2--4-4-4-------7-------------------------------------|
C|-0--0--0--0--2--2--2--2--4-4-4---------------------------------------------|


Chorus:

D|-0-0--0--5-----0--------------------------------------0--0-----5--0--0-----|
A|-3-3--5--7--9--3--------------------------------------3--5-----7--3--5-----|
F|-2-2--4--6--9--2---------------------6-4-6-4-x-x-x-x--2--4-----6--2--4-----|
C|-0-0--2--4--7--0--3--4-2-4-2-x-x-x-x-6-4-6-4-x-x-x-x--0--2--3--4--0--2-----|
G|-0-0--2--4--7--0--4--4-2-4-2-x-x-x-x-4-2-4-2-x-x-x-x--0--2--4--4--0--2-----|
C|-0-0--2--4-----0--3--4-2-4-2-x-x-x-x------------------0--2--3--4--0--2-----|


D|-0--0--5-----0-------------------------------------------------------------|
A|-3--5--7--9--3-------------------------------------------------------------|
F|-2--4--6--9--2-------------------------------------------------------------|
C|-0--2--4--7--0--2-2--------------------------------------------------------|
G|-0--2--4--7--0--2-2--------------------------------------------------------|
C|-0--2--4-----0--2-2--------------------------------------------------------|
                  . .


Outro:

D|---------------------------------------------------------------------------|
A|---------------------------------------------------------------------------|
F|---------------------------------------------------------------------------|
C|-4-2-4-2-x-x-x-x-4-2-4-2-x-x-x-x-4-2-4-2-x-x-x-x-4-2-4-2-4-4---------------|
G|-4-2-4-2-x-x-x-x-4-2-4-2-x-x-x-x-4-2-4-2-x-x-x-x-4-2-4-2-4-4---------------|
C|-4-2-4-2-x-x-x-x-4-2-4-2-x-x-x-x-4-2-4-2-x-x-x-x-4-2-4-2-4-4---------------|
                                                           . .


************************************

| x   Dead note
| h   Hammer-on
| p   Pull-off
| b   Bend
| .   Palm mute

************************************

Other versions of Gurenge

GurengeChords

↓ Add and view comments below ↓

What do you think about this song and these tabs?

Add your comments, questions, rant or a thumbs up below.

Almost there ...

Sign in to get your own page with links to favourite songs and more. You are just one click away...

Login with Facebook Login with Google