Log in

One click and you are in

Login with Facebook Login with Google

Why sign up and log in

Guitar Tabs Explorer
Lisa bass tabs for Gurenge

Bass tabs

Tuning: Standard (E A D G)

G|----------------------------------------------|
D|----------------------------------------------|
A|----------------------------------------------|
E|----------------------------------------------|
G|------------------------------------------------------|
D|------------------------------------------------------|
A|-7---5---7---5---7-7-7-7---7---5---7---5--------------|
E|-------------------------------------------7-7-7-7----|

G|------------------------------------------------------|
D|------------------------------------------------------|
A|-7---5---7---5---7-7-7-7---7---5---7---5--------------|
E|-------------------------------------------7-7-7-7----|

G|--------------------------------------------------------------------|
D|--------------------------------------------------------------------|
A|-7-7-7-7-7-7-7-7-7-7-7-7-7-7-7-7---5-5-5-5-5-5-5-5-5-5-5-5-5-5-5-5--|
E|--------------------------------------------------------------------|

G|------------------------------------------------------------------|
D|------------------------------------------------------------------|
A|-3-3-3-3-3-3-3-3-3-3-3-3-3-3-3-3---5-5-5-5-5-5-5-5-5-5-5-5-5-5-5-5|
E|------------------------------------------------------------------|

G|--------------------------------------------------------------------|
D|--------------------------------------------------------------------|
A|-7-7-7-7-7-7-7-7-7-7-7-7-7-7-7-7---5-5-5-5-5-5-5-5-5-5-5-5-5-5-5-5--|
E|--------------------------------------------------------------------|

G|------------------------------------------------------------------|
D|------------------------------------------------------------------|
A|-3-3-3-3-3-3-3-3-3-3-3-3-3-3-3-3---5-5-5-5-5-5-5-5-5-5-5-5-5-5-5-5|
E|------------------------------------------------------------------|

G|--------------------------------------------------------------------|
D|--------------------------------------------------------------------|
A|-7-7-7-7-7-7-7-7-7-7-7-7-7-7-7-7---5-5-5-5-5-5-5-5-5-5-5-5-5-5-5-5--|
E|--------------------------------------------------------------------|

G|------------------------------------------------------------------|
D|------------------------------------------------------------------|
A|-3-3-3-3-3-3-3-3-3-3-3-3-3-3-3-3---5-5-5-5-5-5-5-5-5-5-5-5-5-5-5-5|
E|------------------------------------------------------------------|

G|---------------------------------------------------------------------|
D|---------------------------------------------------------------------|
A|--7-7-7-7-7-7-7-7-7-7-7-7-7-7-7-7---5-5-5-5-5-5-5-5-5-5-5-5-5-5-5-5--|
E|---------------------------------------------------------------------|

G|-----------------------------------------------------|
D|---------------------------------------------7/0-----|
A|3-3-3-3-3-3-3-3-3-3-3-3-3-3-3-3---5--5--5------------|
E|-----------------------------------------------------|

G|---------------------------------------------------------9T--7T----7T---7T--7*|
D|----------------------------------------------------------------7T----7T----7*|
A|------------------------------------------------------------------------------|
E|-------0---0---0---0---3---3---3---3---5-5-5-5-5-5-5-5------------------------|

G|-----------------------------------------------------------------------------------|
D|-----------------------------------------------------------------------------------|
A|----3-3-3--3-3-3-3-3--3-3---5-5-5--5-5-5-5-5--5-5---5/7/0--------------------------|
E|-----------------------------------------------------------0-0-0--0-0-0-0-0--0-0---|
B|-----------------------------------------------------------------------------------|

G|-------------------------------------------------------------------------|
D|-------------------------------------------------------------------------|
A|-------------------------------------------------------------------------|
E|3-3-3--3-3-3-3-3--3-3----5-5-5---5-5-5-5-5--5-5---7-7-7---7-7-7-7-7---7-7|

G|----------------------------------------------------|
D|----------------------------9---7---9---7---9-9-9-9-|
A|--7---5---7---5---7-7-7-7---------------------------|
E|----------------------------------------------------|

G|-------------------------------------------------------------------------|
D|-------------------------------------------------------------------------|
A|---3-3-3--3-3-3-3-3--3-3---5-5-5--5-5-5-5-5--5-5--7-7-7--7-7-7-7-7--7-7--|
E|-------------------------------------------------------------------------|

G|-------------------------------------------------X--X|
D|-------------------------------------------------X--X|
A|-8-8-8--8-8-8-8-8--8-8---3-3-3--3-3-3-3-3--3-3---X--X|
E|-------------------------------------------------X--X|

G|-----------------------------------|
D|-----------------------------------|
A|--------7---5---7---5----X--X------|
E|-----------------------------------|


************************************

| / Slide up
| * Natural harmonic


************************************

Almost there ...

Sign in to get your own page with links to favourite songs and more. You are just one click away...

Login with Facebook Login with Google