Log in

One click and you are in

Login with Facebook Login with Google

Why sign up and log in

Guitar Tabs Explorer
Linkin Park bass tabs for One more light

Bass tabs

Tuning: B Tuning (B E A D)


Tuning: 5 String Standard (B E A D G)
NOTE: Synth Bass transcribed for 5 String Electric Bass


Intro:

No bass part during this section (10 bars).


Verse 1:
No bass part during this section (16 bars).


Chorus 1:
No bass part during this section (12 bars).


Verse 2:
No bass part during this section (16 bars).


Chorus 2:

  1  +  2  +  3  +  4  +   1  +  2  +  3  +  4  +
G|-----------------------------------------|-----------------------------------------|
D|-----------------------------------------|-----------------------------------------|
A|-----------------------------------------|-----------------------------------------|
E|--1--------------------------------------|-----------------------------------------|
B|-----------------------------------------|--2--------------------------------------|

  1  +  2  +  3  +  4  +   1  +  2  +  3  +  4  +
G|-----------------------------------------|-----------------------------------------|
D|-----------------------------------------|-----------------------------------------|
A|-----------------------------------------|-----------------------------------------|
E|--4--------------------------------------|----------------------3------------------|
B|-----------------------------------------|-----------------------------------------|


  1  +  2  +  3  +  4  +   1  +  2  +  3  +  4  +
G|-----------------------------------------|-----------------------------------------|
D|-----------------------------------------|-----------------------------------------|
A|-----------------------------------------|-----------------------------------------|
E|--1--------------------------------------|-----------------------------------------|
B|-----------------------------------------|--2--------------------------------------|


  1  +  2  +  3  +  4  +   1  +  2  +  3  +  4  +
G|-----------------------------------------|-----------------------------------------|
D|-----------------------------------------|-----------------------------------------|
A|-----------------------------------------|-----------------------------------------|
E|--4--------------------------------------|----------------------3------------------|
B|-----------------------------------------|-----------------------------------------|


  1  +  2  +  3  +  4  +   1  +  2  +  3  +
G|-----------------------------------------|------------------------------|
D|-----------------------------------------|------------------------------|
A|-----------------------------------------|--1---------------------------|
E|--1--------------------------------------|------------------------------|
B|-----------------------------------------|------------------------------|


  1  +  2  +  3  +  4  +   1  +  2  +  3  +  4  +
G|-----------------------------------------|-----------------------------------------|
D|-----------------------------------------|-----------------------------------------|
A|-----------------------------------------|-----------------------------------------|
E|--4--------------------------------------|----------------------3------------------|
B|-----------------------------------------|-----------------------------------------|


Solo:

  1  +  2  +  3  +  4  +   1  +  2  +  3  +  4  +
G|-----------------------------------------|-----------------------------------------|
D|-----------------------------------------|-----------------------------------------|
A|-----------------------------------------|-----------------------------------------|
E|--1--------------------------------------|-----------------------------------------|
B|-----------------------------------------|--2--------------------------------------|


  1  +  2  +  3  +  4  +   1  +  2  +  3  +  4  +
G|-----------------------------------------|-----------------------------------------|
D|-----------------------------------------|-----------------------------------------|
A|-----------------------------------------|-----------------------------------------|
E|--4--------------------------------------|----------------------3------------------|
B|-----------------------------------------|-----------------------------------------|


  1  +  2  +  3  +  4  +   1  +  2  +  3  +  4  +
G|-----------------------------------------|-----------------------------------------|
D|-----------------------------------------|-----------------------------------------|
A|-----------------------------------------|-----------------------------------------|
E|--1--------------------------------------|-----------------------------------------|
B|-----------------------------------------|--2--------------------------------------|


  1  +  2  +  3  +  4  +   1  +  2  +  3  +  4  +
G|-----------------------------------------|-----------------------------------------|
D|-----------------------------------------|-----------------------------------------|
A|-----------------------------------------|-----------------------------------------|
E|-----------------------------------------|-----------------------------------------|
B|--4--------------------------------------|-----------------------------------------|


Chorus 3/Outro:

  1  +  2  +  3  +  4  +   1  +  2  +  3  +  4  +
G|-----------------------------------------|-----------------------------------------|
D|-----------------------------------------|-----------------------------------------|
A|-----------------------------------------|-----------------------------------------|
E|--1--------------------------------------|-----------------------------------------|
B|-----------------------------------------|--2--------------------------------------|


  1  +  2  +  3  +  4  +   1  +  2  +  3  +  4  +
G|-----------------------------------------|-----------------------------------------|
D|-----------------------------------------|-----------------------------------------|
A|-----------------------------------------|-----------------------------------------|
E|--4--------------------------------------|----------------------3------------------|
B|-----------------------------------------|-----------------------------------------|


  1  +  2  +  3  +  4  +   1  +  2  +  3  +  4  +
G|-----------------------------------------|-----------------------------------------|
D|-----------------------------------------|-----------------------------------------|
A|-----------------------------------------|-----------------------------------------|
E|--1--------------------------------------|-----------------------------------------|
B|-----------------------------------------|--2--------------------------------------|


  1  +  2  +  3  +  4  +   1  +  2  +  3  +  4  +
G|-----------------------------------------|-----------------------------------------|
D|-----------------------------------------|-----------------------------------------|
A|-----------------------------------------|-----------------------------------------|
E|--4--------------------------------------|----------------------3------------------|
B|-----------------------------------------|-----------------------------------------|


  1  +  2  +  3  +  4  +   1  +  2  +  3  +
G|-----------------------------------------|------------------------------|
D|-----------------------------------------|------------------------------|
A|-----------------------------------------|--1---------------------------|
E|--1--------------------------------------|------------------------------|
B|-----------------------------------------|------------------------------|


  1  +  2  +  3  +  4  +
G|-----------------------------------------|
D|-----------------------------------------|
A|-----------------------------------------|
E|--4--------------------------------------|
B|-----------------------------------------|

Almost there ...

Sign in to get your own page with links to favourite songs and more. You are just one click away...

Login with Facebook Login with Google