Log in

One click and you are in

Login with Facebook Login with Google

Why sign up and log in

Guitar Tabs Explorer
Linkin Park guitar tabs for In the end

Guitar tabs

Album: Hybrid Theory (2000)

Dropped A chord diagramD MajorD and tune down 1/2 step
<> = harmonics
Riff (Piano arranged for guitar)
eb--------------------------------------------------------
Bb--------------------------------------------------------
Gb-----4--4-----------------------4--4--------------------
Db--2--------5--4--4--4--4--5--2--------5--4--4--4--4--5--
Ab--------------------------------------------------------
Db--------------------------------------------------------


Verse
eb----------------------------------<12>------------------
Bb--------<7>----<5>---------<7>--------------------------
Gb---<5>----------------<5>-------------------------------
Db--------------------------------------------------------
Ab--------------------------------------------------------
Db--------------------------------------------------------
("It starts with one thing...")


Chorus A chord diagramA augmentedA (Guitar 1)
eb--------------------------------------------------------
Bb--------------------------------------------------------
Gb-----------------5-----------------------5---4----------
Db--2----5----0----5---0----2----5----0----5---4----------
Ab--2----5----0----3---0----2----5----0----3---2----------
Db--2----5----0--------0----2----5----0-------------------
("I tried so hard...")


Chorus A chord diagramBB (Guitar 2)
eb------------19------------------------------------------
Bb--20--19----------20--19----17--------------------------
Gb--------------------------------------------------------
Db--------------------------------------------------------
Ab--------------------------------------------------------
Db--------------------------------------------------------

Outro (Piano arranged for guitar)
eb-----------0--2--3---2----------------------------------
Bb--------0-----------------------------------------------
Gb-----0--------------------------------------------------
Db--2-----------------------------------------------------
Ab--------------------------------------------------------
Db--------------------------------------------------------


Riff

Verse

Verse, Riff

Chorus A, A chord diagramBB

Verse

Verse, Riff

Chorus A, A chord diagramBB

Riff

Chorus A chord diagramA augmentedA

Chorus A, A chord diagramBB

Riff

Outro

Other versions of In The End

In the endChords
In the end acousticChords
In the end ukuleleChords
In the end - introTabs
In the end1Tabs

Almost there ...

Sign in to get your own page with links to favourite songs and more. You are just one click away...

Login with Facebook Login with Google