Log in

One click and you are in

Login with Facebook Login with Google

Why sign up and log in

Guitar Tabs Explorer
Linkin Park bass tabs for Battle symphony

Bass tabs

Tuning: Half-Step Down (Eb Ab Db Gb)

Title: Battle Symphony
Album: One More Light

Tuning: D# Standard (D# G# C# F#)
Intro:

No bass part for the first 9 bars, followed by:

   1  +  2  +  3  +  4  +   1  +  2  +  3  +  4  +
F#|-----------------------------------------|-----------------------------------------|
C#|-----------------------------------------|-----------------------------------------|
G#|--2---------2---------x--------------2---|-----------------------------------------|
D#|-----------------------------------------|--0---------0---------x---------0--------|


   1  +  2  +  3  +  4  +   1 e + a 2 e + a 3 e + a 4 e + a
F#|-----------------------------------------|--------------------------------------------------|
C#|-----------------------------------------|--------------------------4-----------------------|
G#|-----------------------------------------|--------------------------------------------------|
D#|--4---------4---------x--------------4---|--2--------2--------2-----------------2-----------|


   1  +  2  +  3  +  4  +   1  +  2  +  3  +  4  +
F#|-----------------------------------------|-----------------------------------------|
C#|-----------------------------------------|-----------------------------------------|
G#|--2---------2---------x--------------2---|-----------------------------------------|
D#|-----------------------------------------|--0---------0---------x---------0--------|


   1  +  2  +  3  +  4  +   1 e + a 2 e + a 3 e + a 4 e + a
F#|-----------------------------------------|--------------------------------------------------|
C#|-----------------------------------------|--------------------------4-----------------------|
G#|-----------------------------------------|--------------------------------------------------|
D#|--4---------4---------x--------------4---|--2--------2--------2-----------------2-----------|


Verse 1:

No bass part for this section (16 bars).


Pre-Chorus 1:

No bass part for this section (3 bars).


Chorus 1:

No bass part for this section (16 bars).


Post-Chorus 1:

   1  +  2  +  3  +  4  +   1  +  2  +  3  +  4  +
F#|-----------------------------------------|-----------------------------------------|
C#|-----------------------------------------|-----------------------------------------|
G#|--2---------2---------x--------------2---|-----------------------------------------|
D#|-----------------------------------------|--0---------0---------x---------0--------|


   1  +  2  +  3  +  4  +   1 e + a 2 e + a 3 e + a 4 e + a
F#|-----------------------------------------|--------------------------------------------------|
C#|-----------------------------------------|--------------------------4-----------------------|
G#|-----------------------------------------|--------------------------------------------------|
D#|--4---------4---------x--------------4---|--2--------2--------2-----------------2-----------|


   1  +  2  +  3  +  4  +   1  +  2  +  3  +  4  +
F#|-----------------------------------------|-----------------------------------------|
C#|-----------------------------------------|-----------------------------------------|
G#|--2---------2---------x--------------2---|-----------------------------------------|
D#|-----------------------------------------|--0---------0---------x---------0--------|


   1  +  2  +  3  +  4  +   1 e + a 2 e + a 3 e + a 4 e + a
F#|-----------------------------------------|--------------------------------------------------|
C#|-----------------------------------------|--------------------------4-----------------------|
G#|-----------------------------------------|--------------------------------------------------|
D#|--4---------4---------x--------------4---|--2--------2--------2-----------------2-----------|


Verse 2:

No bass part for the first 8 bars, followed by:

   1  +  2  +  3  +  4  +   1  +  2  +  3  +  4  +
F#|-----------------------------------------|-----------------------------------------|
C#|-----------------------------------------|-----------------------------------------|
G#|-----------------------------------------|--2--------------2-----------------------|
D#|--4-------------------0------------------|-----------------------------------------|


   1  +  2  +  3  +  4  +   1  +  2  +  3  +  4  +
F#|-----------------------------------------|-----------------------------------------|
C#|-----------------------------------------|-----------------------------------------|
G#|-----------------------------------------|--2--------------2-----------------------|
D#|--4-------------------0------------------|-----------------------------------------|


   1  +  2  +  3  +  4  +   1  +  2  +  3  +  4  +
F#|-----------------------------------------|-----------------------------------------|
C#|-----------------------------------------|-----------------------------------------|
G#|-----------------------------------------|--2-------------------1------------------|
D#|--4-------------------0------------------|-----------------------------------------|


   1  +  2  +  3  +  4  +   1  +  2  +  3  +  4  +
F#|-----------------------------------------|-----------------------------------------|
C#|-----------------------------------------|-----------------------------------------|
G#|-----------------------------------------|--2--------------2-----------------------|
D#|--4-------------------0------------------|-----------------------------------------|


Pre-Chorus 2:

   1  +  2  +  3  +  4  +   1  +  2  +  3  +  4  +
F#|-----------------------------------------|-----------------------------------------|
C#|-----------------------------------------|-----------------------------------------|
G#|--4--------------------------------------|-----------------------------------------|
D#|-----------------------------------------|--2--------------------------------------|


Chorus 2:

   1  +  2  +  3  +  4  +   1  +  2  +  3  +  4  +
F#|-----------------------------------------|-----------------------------------------|
C#|-----------------------------------------|-----------------------------------------|
G#|-----------------------------------------|-----------------------------------------|
D#|--4---------4---------x------------------|--0---------0---------x------------------|


   1  +  2  +  3  +  4  +   1  +  2  +  3  +  4  +
F#|-----------------------------------------|-----------------------------------------|
C#|-----------------------------------------|-----------------------------------------|
G#|--2---------2---------x--------------2---|-----------------------------------------|
D#|-----------------------------------------|--2---------2----------------------------|


   1  +  2  +  3  +  4  +   1  +  2  +  3  +  4  +
F#|-----------------------------------------|-----------------------------------------|
C#|-----------------------------------------|-----------------------------------------|
G#|-----------------------------------------|-----------------------------------------|
D#|--4---------4---------x------------------|--0---------0---------x------------------|


   1  +  2  +  3  +  4  +   1 e + a 2 e + a 3 e + a 4 e + a
F#|-----------------------------------------|--------------------------------------------------|
C#|-----------------------------------------|--------------------------4-----------4-----------|
G#|--2---------2---------x--------------2---|--------------------------------------------------|
D#|-----------------------------------------|--2--------2--------2-----------2-----------------|


   1  +  2  +  3  +  4  +   1  +  2  +  3  +  4  +
F#|-----------------------------------------|-----------------------------------------|
C#|-----------------------------------------|-----------------------------------------|
G#|-----------------------------------------|-----------------------------------------|
D#|--4---------4---------x------------------|--0---------0---------x------------------|


   1  +  2  +  3  +  4  +   1  +  2  +  3  +  4  +
F#|-----------------------------------------|-----------------------------------------|
C#|-----------------------------------------|-----------------------------------------|
G#|--2---------2---------x--------------2---|-----------------------------------------|
D#|-----------------------------------------|--2---------2----------------------------|


   1  +  2  +  3  +  4  +   1  +  2  +  3  +  4  +
F#|-----------------------------------------|-----------------------------------------|
C#|-----------------------------------------|-----------------------------------------|
G#|-----------------------------------------|-----------------------------------------|
D#|--4---------4---------x------------------|--0---------0---------x------------------|


   1  +  2  +  3  +  4  +   1 e + a 2 e + a 3 e + a 4 e + a
F#|-----------------------------------------|--------------------------------------------------|
C#|-----------------------------------------|--------------------------4-----------4-----------|
G#|--2---------2---------x--------------2---|--------------------------------------------------|
D#|-----------------------------------------|--2--------2--------2-----------2-----------------|


Bridge:

   1  +  2  +  3  +  4  +   1  +  2  +  3  +  4  +
F#|-----------------------------------------|-----------------------------------------|
C#|-----------------------------------------|-----------------------------------------|
G#|-----------------------------------------|--4---------4---------4---------4--------|
D#|--0---------0---------0---------0--------|-----------------------------------------|


   1  +  2  +  3  +  4  +   1  +  2  +  3  +  4  +
F#|-----------------------------------------|-----------------------------------------|
C#|-----------------------------------------|-----------------------------------------|
G#|-----------------------------------------|-----------------------------------------|
D#|--4---------4---------4---------4--------|--2---------2---------2---------2--------|


   1  +  2  +  3  +  4  +   1  +  2  +  3  +  4  +
F#|-----------------------------------------|-----------------------------------------|
C#|-----------------------------------------|-----------------------------------------|
G#|-----------------------------------------|--4---------4---------4---------4--------|
D#|--0---------0---------0---------0--------|-----------------------------------------|


   1  +  2  +  3  +  4  +   1  +  2  +  3  +  4  +
F#|-----------------------------------------|-----------------------------------------|
C#|-----------------------------------------|-----------------------------------------|
G#|-----------------------------------------|-----------------------------------------|
D#|--4---------4---------4---------4--------|--2---------2---------2---------2--------|


   1  +  2  +  3  +  4  +   1  +  2  +  3  +  4  +
F#|-----------------------------------------|-----------------------------------------|
C#|-----------------------------------------|-----------------------------------------|
G#|--4---------4---------4---------4--------|-----------------------------------------|
D#|-----------------------------------------|--2---------2---------2---------2--------|

Followed by 1 bar of silence.


Chorus 3:

No bass part for the first 8 bars, followed by:

   1  +  2  +  3  +  4  +   1  +  2  +  3  +  4  +
F#|-----------------------------------------|-----------------------------------------|
C#|-----------------------------------------|-----------------------------------------|
G#|-----------------------------------------|-----------------------------------------|
D#|--4---------4---------4---------4--------|--0---------0---------0---------0--------|


   1  +  2  +  3  +  4  +   1  +  2  +  3  +  4  +
F#|-----------------------------------------|-----------------------------------------|
C#|-----------------------------------------|-----------------------------------------|
G#|--2---------2---------2---------2--------|-----------------------------------------|
D#|-----------------------------------------|--2---------2---------2---------2--------|


   1  +  2  +  3  +  4  +   1  +  2  +  3  +  4  +
F#|-----------------------------------------|-----------------------------------------|
C#|-----------------------------------------|-----------------------------------------|
G#|-----------------------------------------|-----------------------------------------|
D#|--4---------4---------4---------4--------|--0---------0---------0---------0--------|


   1  +  2  +  3  +  4  +   1 e + a 2 e + a 3 e + a 4 e + a
F#|-----------------------------------------|--------------------------------------------------|
C#|-----------------------------------------|--------------------------4-----------4-----------|
G#|--2---------2---------2---------2--------|--------------------------------------------------|
D#|-----------------------------------------|--2--------2--------2-----------2-----------------|


Outro:

   1  +  2  +  3  +  4  +   1  +  2  +  3  +  4  +
F#|-----------------------------------------|-----------------------------------------|
C#|-----------------------------------------|-----------------------------------------|
G#|--2---------2---------x--------------2---|-----------------------------------------|
D#|-----------------------------------------|--0---------0---------x---------0--------|


   1  +  2  +  3  +  4  +   1 e + a 2 e + a 3 e + a 4 e + a
F#|-----------------------------------------|--------------------------------------------------|
C#|-----------------------------------------|--------------------------4-----------------------|
G#|-----------------------------------------|--------------------------------------------------|
D#|--4---------4---------x--------------4---|--2--------2--------2-----------------2-----------|


   1  +  2  +  3  +  4  +   1  +  2  +  3  +  4  +
F#|-----------------------------------------|-----------------------------------------|
C#|-----------------------------------------|-----------------------------------------|
G#|--2---------2---------x--------------2---|-----------------------------------------|
D#|-----------------------------------------|--0---------0---------x---------0--------|


   1  +  2  +  3  +  4  +   1 e + a 2 e + a 3 e + a 4 e + a
F#|-----------------------------------------|--------------------------------------------------|
C#|-----------------------------------------|--------------------------4-----------------------|
G#|-----------------------------------------|--------------------------------------------------|
D#|--4---------4---------x--------------4---|--2--------2--------2-----------------2-----------|

Followed by 4 bars of silence.


***********************************

| x Dead note

***********************************

Almost there ...

Sign in to get your own page with links to favourite songs and more. You are just one click away...

Login with Facebook Login with Google