Log in

One click and you are in

Login with Facebook Login with Google

Why sign up and log in

Guitar Tabs Explorer
LiL PEEP chords for Star shopping ukulele

Guitar chords

Tuning: G C E A (G C E A)


Intro:

A|---------------------------------------------------------------------------|
E|-----2-----2-----2-----2-----2-----2-----2-----2-----2-----2---------------|
C|--------------------------------2-----2-----2-----2-----2------------------|
G|--0-----0-----0-----0-----0------------------------------------------------|

A|---------------------------------------------------------------------------|
E|-----2-----2-----2-----2-----2-----2-----2-------2-----2-------------------|
C|----------------------------------------------2-----2-----2----------------|
G|--2-----2-----2-----2-----2-----2-----2-----2------------------------------|


(x22)

ⓘ Guitar chords for 'Star Shopping Ukulele' by LiL PEEP, a male hip-hop artist from Long Island, New York. LiL PEEP was born in 1996. He passed away in 2017

Almost there ...

Sign in to get your own page with links to favourite songs and more. You are just one click away...

Login with Facebook Login with Google